Song name
# A B C D E F G H I J K L M N O P Q R S T U V W X Y Z

Jimmy Bondoc - I Believe tab

I Believe by Shin Seung Hun
The theme song of the Film. "My Sassy Girl"
hindi ko alam kung ganito din yung kay Jimmy Bondoc,
hindi po kase makita si Shin Seung Hun sa Band/Artist,
kaya si Jimmy Bondoc nalang nilagay ko.
First Time po mag entry ng tabs dito sa Ultimate Guitar.
pasensya. hehe :)


Enjoy :)


Intro:
|-0----------------|---------------|------------------|------------------|
|---0-----3-----3--|-1-0--------0--|-------0-1---3----|-------0-1---3-0--|
|-----2-0-----0----|---------------|-0---0-----0---0--|-0---0-----0------|
|------------0-----|-----2-3-4-----|---0-----2---4----|---0-----2---4----|
|-3-------2--------|-0-------5-----|------------------|------------------|
|------------------|---------------|-3----------------|-3-------------3--|

Verse:
|------------------|------------------|--------------------|------------------|
|---3-------3---0--|-1-0-1-3-0--------|-----0-------2------|-------------3-1--|
|-----0-2-----2----|---------------2--|-0-------2----------|-0---0-2-2--------|
|-0-------0--------|-----------0-4----|---2---2---2---2-4--|---4-----0-0------|
|------------------|-3----------------|---------0----------|-3----------------|
|-------2----------|---------3--------|-0------------------|------------------|

|--------------------|-------------------|-------0--------------|----------------|
|-0---3-------3---0--|-1-0-1-3-0---------|-----0---0-----2------|-------------3--|
|-------0-2-----2----|----------------2--|-0---------2----------|-0---0-2-2------|
|---0-------0--------|------------0-4----|---2---------2---2-4--|---4-----0-0----|
|---------2----------|-3-----------------|-----------0----------|-3--------------|
|-3------------------|---------3---------|-0--------------------|----------------|

Pre Chorus:
|------------------|---0-----------0-2--|-3-2-3-----0-0-0--0---0----|-------3-2-------|
|---------0-3-3-3--|-3---1-3-0----------|-------0------------3---3--|-3---3------3----|
|-----0-2----------|-------------0------|---------2-----------------|---2----------2--|
|---2--------------|-----0-----0--------|---------------------------|-0---------------|
|-3-------2--------|-0------------------|---------0--------0--------|-----------------|
|------------------|---------3----------|-0-------------------------|-----------------|

Chorus:
|---------------0--|-------3-2---0----|---0----------------|-----0----------|
|-------3-1-0-1----|-3----------------|-3---1-0-1----------|-1-3---3-0------|
|-----0------------|-----0-----0---0--|-----------------0--|-----------2----|
|---0-----0--------|---0--------------|-------------2-4----|---------0---0--|
|------------------|-2----------------|-0---------0--------|-3--------------|
|-3----------------|---------0--------|--------------------|----------------|

|---------------0--|---------------0-2--|-2-3-3-------3-2-3--|-2-0-0-------0--|
|-------3-1-0-1----|-3-----3-3-4-4------|--------------------|----------------|
|-----0------------|-----0--------------|-------0---0--------|-------0---0----|
|---0-----0--------|---0----------------|---------0----------|----------------|
|------------------|-2---------2--------|--------------------|-4-------3------|
|-3----------------|--------------------|-0------------------|----------------|

( Repeat.. 'Intro, Pre Chorus and Chorus' )

|-0----------------------------|
|---0-----3-----3-1-0-------0--|
|-----2-0-----0----------------|
|-----------0---------2-3-4----|
|-3-------2-------0-------5----|
|------------------------------|

Bridge:
|-----0---0---2-0--|-0---0-2-----0-2--|-3-----3-2-3-2------|-0---0-0--0-1----|
|-----1------------|---4-----4--------|-----0---------3-3--|---3----------3--|
|-------0---0------|-----------4------|---0----------------|-----------------|
|---2--------------|------------------|---------0----------|-----------------|
|-3-------3--------|-2-------2--------|--------------------|-3---------------|
|------------------|------------------|-0------------------|----------0------|

|---0-----------|-----0-2--2-3-3----|-----3-1--------|-------3-2--------|
|-1---3----3-3--|-4-4---------------|---------4-3-1--|-3---3-----3---3--|
|-----2---------|----------------0--|---0---1--------|---2---------2----|
|--------0------|-------------------|-1--------------|-0----------------|
|-0-------------|-2-----------------|----------------|------------------|
|-----2---------|----------0--------|----------------|------------------|

( Repeat.. 'Chorus' )

Ending:
|-0----------------|--------------|-------0--------0--|-0----------------|
|---0-----3-----3--|-1-0-------0--|-----0--------0----|---0-----3-----3--|
|-----2-0-----0----|--------------|---0--------0------|-----2-0-----0----|
|-----------0------|-----2-3-4----|-2--------1--------|-----------0------|
|-3-------2--------|-0-------5----|-------------------|-3-------2--------|
|------------------|--------------|-------------------|------------------|

                                                     ^
|--------------|------------------|----------------|-3---------|
|-1-0-------0--|-------0-1---3----|-0-----0-1---3--|-0---------|
|--------------|-0---0-----0---0--|-----0-----0----|-0---------|
|-----2-3-4----|---0-----2---4----|---0-----2---4--|-0---------|
|-0-------5----|------------------|----------------|-2---------|
|--------------|-3----------------|-3--------------|-3---------|
Tap to rate this tab
# A B C D E F G H I J K L M N O P Q R S T U V W X Y Z