Song name
# A B C D E F G H I J K L M N O P Q R S T U V W X Y Z

Jimmy Bondoc - Let Me Be The One tab

-------------------------------------------------------------------------------
                               Let Me Be The One
-------------------------------------------------------------------------------
Tabbed by: Dan Gabriel Constantino (MrPapaGab)
E-mail: dan_gabriel14@yahoo.com / cossmoss0414@gmail.com

Tuning: Standard

Chorus

e|---------------------------------------------------------------------------|
B|---------3---3---3---------------------------0---0-------------------------|
G|-2---0-----------------------0---2---------------------------2---0---2-----|
D|-------------------------2---------------0---------------0-----------------|
A|---------3-----------3---------------2---------------2---------------0-----|
E|---------------------------------------------------------------------------|

e|---------------------------------------------------------------------------|
B|-0---0-----------------------0---------------------------------------------|
G|-----------------0---2---------------0-------------------------------------|
D|-------------2-------------------0-----------0-----------------------------|
A|---------0-----------------------------------------------------------------|
E|-------------------------3---------------3---------------------------------|

e|---------------------------------------------------------------------------|
B|---------3---3---3---------------------------0---0-------------------------|
G|-2---0---0-------------------0---2---------------0------------2---0---2----|
D|-------------------------2---------------0---------------0-----------------|
A|---------3-----------3---------------2---------------2----------------0----|
E|---------------------------------------------------------------------------|

e|---------------------------------------------------------------------------|
B|-0---0-------------------0-------------------------------------------------|
G|-----2-----------0---2-----------0-----------------------------------------|
D|-------------2---------------0-----------0---------------------------------|
A|---------0-----------------------------------------------------------------|
E|---------------------3---------------3-------------------------------------|

e|---------3---3---3-----------3---2-------2---5-----------3---5---7---------|
B|---------3---3-------------------3-------3-----------------------0---------|
G|-2---0---0-----------------------2-------------------------------0---------|
D|-------------------------2---------------------------0---------------------|
A|---------3-----------3---------------0-----------0-------------------------|
E|-----------------------------------------------------------------3---------|

e|-5---5-------3-------------------------------------------------------------|
B|-----0-----------3---------------------------------------------------------|
G|-----------------2-----------2---------------------------------------------|
D|-----------------0-------0-------0-------0---------------------------------|
A|---------0-----------0---------------0-------------------------------------|
E|---------------------------------------------------------------------------|

e|---------------------------------------------------------------------------|
B|---------3---3---3---------------------------0-----------------------------|
G|-2---0---0-------------------0---2---------------2-------0-----------------|
D|-------------------------2---------------0-----------------------2---------|
A|---------3-----------3---------------2---------------2-------2---0---------|
E|---------------------------------------------------------------------------|

e|---------------------------------------------------------------------------|
B|---------------------0-----------------------------------------------------|
G|-----------------------------2-------0-------------------------------------|
D|-----2-------2---2-------------------0-------------------------------------|
A|-0-------0-------0-------0-------0-----------------------------------------|
E|---------------------------------------------------------------------------|

End.

Enjoy!
Tap to rate this tab
# A B C D E F G H I J K L M N O P Q R S T U V W X Y Z