Song name
# A B C D E F G H I J K L M N O P Q R S T U V W X Y Z

Jimmy Buffett - Savannah Fare You Well tab

e|-------------------------------------|
B|----6----6----5--5----6----6----5--5-|
G|----5----5----5--5----5----5----5--5-| X5
D|--0----0----0-------0----0----0------|
A|-------------------------------------|
E|-------------------------------------|

    "I gotta feelin that the dark side of the moon...."
e|-----------------|
B|----8---8---7--7-|
G|----7---7---7--7-| X4
D|--0---0---0------|
A|-----------------|
E|-----------------|

Then he starts to hit just one, like this:

e|----------------|
B|----6-------5---|
G|----5-------5---|
D|--0-------0-----|
A|----------------|
E|----------------|

Listen to the song to catch the beat


Its like that for all the verses but i can't figure out the chorus. If anyone finds that 
can please repost with corrections. Thanks
Tap to rate this tab
 
# A B C D E F G H I J K L M N O P Q R S T U V W X Y Z