Song name
# A B C D E F G H I J K L M N O P Q R S T U V W X Y Z

Jimmy Buffett - Grapefruit Juicy Fruit tab

Jimmy Buffett
Grapefruit, Juicy Fruit
Songs You Know By Heart

Standard Tuning

Intro 
     B   C
e:|-------------------------------|
B:|--4-/-5~---5---6---5---4---5~--| 2x
G:|-------------------------------|
D:|--4-/-5~-----------------------|
A:|--2-/-3~-3---3---------3-------|
E:|-------------------------------|
      
     F#  G                    C
e:|----------------------------------|
B:|---------------------------0--1~--|
G:|--3-/-4~----4h5--4~---4----0--0~--|
D:|--4-/-5~----5----5~---5-----------|
A:|---------------------------3--3~--|
E:|--2-/-3~--3---------3-------------|

Tap to rate this tab
# A B C D E F G H I J K L M N O P Q R S T U V W X Y Z