Song name
# A B C D E F G H I J K L M N O P Q R S T U V W X Y Z

Jimmy Buffett - Changes In Latitudes tab

Intro :Changes In Latitudes
                        By
               Jimmy Buffet


E-----10---10---10---10-------9------7--------------+
B-------12---12---12---12-----10-----8--------------+
G---------------------------------------------------+
D---------------------------------------------------+
A---------------------------------------------------+
E---------------------------------------------------+

E-----9---9---9---9--------7------5-----------------+
B------10--10-10--10------8------7------------------+
G---------------------------------------------------+
D---------------------------------------------------+
A---------------------------------------------------+
E---------------------------------------------------+

E-----7---7---7---7------5------3-------------------+
B------8---8---8---8------7------5------------------+
G---------------------------------------------------+
D---------------------------------------------------+
A---------------------------------------------------+
E---------------------------------------------------+

E-----7------5------3------2------------------------+
B------8------7------5------3-----------------------+
G---------------------------------------------------+
D---------------------------------------------------+
A---------------------------------------------------+
E---------------------------------------------------+

This is as good and close as it`s gonna get! LLRNR!! Parrot Heads!!
Any suggestions? Send me an email to….gtgtaylor3@gmail.com
Listen to the song if you have any doubts..that should help you along.


Tap to rate this tab
# A B C D E F G H I J K L M N O P Q R S T U V W X Y Z