Song name
# A B C D E F G H I J K L M N O P Q R S T U V W X Y Z

Jimmy Buffett - Wondering Where The Lions tab

standard tuning. if you dont like this version look at Bruce Cockburn's song tab.
i first heard this song in Hoot and I've loved Jimmy my whole life. -Zach Springer


for the verses:
----0--------0--------0--2--0------------------------------------------------|
-------2--------2--------------2--0-----0------------0------------0----------|
----------2--------2-----------------2------2-----2------2-----2-----2-------|
-----------------------------------------------4------------4-----------4--2-|
----0--------0--------0-----------------5------------5------------5----------|
-----------------------------------------------------------------------------|
and repeat.

then the chorus is just strumming (Down Down Up Up Down Up x2)

im wondering where the lion are.  wondering where the lions are.
----0-------------------------------0---------------------------------------|
----0-------------------------------2---------------------------------------|
----2-------------------------------2---------------------------------------|
----4-------------------------------2---------------------------------------|
----5-------------------------------0---------------------------------------|
----5-------------------------------0---------------------------------------|
Tap to rate this tab
 
# A B C D E F G H I J K L M N O P Q R S T U V W X Y Z