Song name
# A B C D E F G H I J K L M N O P Q R S T U V W X Y Z

Jimmy Buffett - Come Monday tab

Artist: Jimmy Buffet
Song: Come Monday

 Intro
  E E E Q  E S S E E E E Q  E S S E
|--------------------------------------|
|-------0----0h1-1-------0----0h1-1----|
|-----0----------------0---------------|
|---0------0---------0------0----------|
|--------------------------------------|
|-3----------------3-------------------|


  E E E Q  E S S E E E E Q  E S S E
|--------------------------------------|
|-------0----0h1-1-------0----0h1-1----|
|-----0----------------0---------------|
|---0------0---------0------0----------|
|--------------------------------------|
|-3----------------3-------------------|


 Verse
  E E E E E E E E E E E E E E E E E E E E E E E E E E E E E E E E
|-------------------------------0-------2-------2--------------------|
|-------0-------0-------1-----1-------3-------3---------0-------0----|
|-----0-------0-------0-----0-------2-------2---------0-------0------|
|---0-------0-------2-----2-------0-------0---------0-------0--------|
|---------2-------3---------------------------------------2----------|
|-3-----------------------------------------------3------------------|


  E E E E E E E E E E E E E E E E E E E E E E E E E E E E E E E E
|-------------------------------0-------2-------2--------------------|
|-------0-------0-------1-----1-------3-------3---------0-------0----|
|-----0-------0-------0-----0-------2-------2---------0-------0------|
|---0-------0-------2-----2-------0-------0---------0-------0--------|
|---------2-------3---------------------------------------2----------|
|-3-----------------------------------------------3------------------|


  E E E E E E E E E E E E E E E E E E E E E E E E E E E E E E E E
|---------------0-------2-------2-------2-------2-------2-------2----|
|-------1-----1-------3-------3-------3-------3-------1-------1------|
|-----2-----2-------2-------2-------2-------2-------2-------2--------|
|---2-----2-------0-------0-------0-------0-------0-------0----------|
|-0------------------------------------------------------------------|
|--------------------------------------------------------------------|


 Chorus
  Q  E Q  E E E Q  E Q  E E E Q  E Q  E E E Q  E Q  E E E
|-0--0-0--0-0-0-3--3-3--3-3-3-0--0-0--0-0-0-2--2-2--2-2-2----|
|-1--1-1--1-1-1-0--0-0--0-0-0-1--1-1--1-1-1-3--3-3--3-3-3----|
|-0--0-0--0-0-0-0--0-0--0-0-0-0--0-0--0-0-0-2--2-2--2-2-2----|
|-2--2-2--2-2-2-0--0-0--0-0-0-2--2-2--2-2-2-0--0-0--0-0-0----|
|-3--3-3--3-3-3-2--2-2--2-2-2-3--3-3--3-3-3------------------|
|---------------3--3-3--3-3-3--------------------------------|


  H    H    H    H    H    H
|-3----2----0----2----0----2----|
|-0----3----1----3----1----3----|
|-0----4----0----2----0----2----|
|-0----4----2----0----2----0----|
|-2----2----3---------3---------|
|-3-----------------------------|


  E E E Q  E S S E E E E Q  E S S E
|--------------------------------------|
|-------0----0h1-1-------0----0h1-1----|
|-----0----------------0---------------|
|---0------0---------0------0----------|
|--------------------------------------|
|-3----------------3-------------------|


 Verse
  E E E E E E E E E E E E E E E E E E E E E E E E E E E E E E E E
|-------------------------------0-------2-------2--------------------|
|-------0-------0-------1-----1-------3-------3---------0-------0----|
|-----0-------0-------0-----0-------2-------2---------0-------0------|
|---0-------0-------2-----2-------0-------0---------0-------0--------|
|---------2-------3---------------------------------------2----------|
|-3-----------------------------------------------3------------------|


  E E E E E E E E E E E E E E E E E E E E E E E E E E E E E E E E
|-------------------------------0-------2-------2--------------------|
|-------0-------0-------1-----1-------3-------3---------0-------0----|
|-----0-------0-------0-----0-------2-------2---------0-------0------|
|---0-------0-------2-----2-------0-------0---------0-------0--------|
|---------2-------3---------------------------------------2----------|
|-3-----------------------------------------------3------------------|


  E E E E E E E E E E E E E E E E E E E E E E E E E E E E E E E E
|---------------0---------------0-------2-------2-------2-------2----|
|-------1-----1---------1-----1-------3-------3-------1-------1------|
|-----2-----2---------0-----0-------2-------2-------2-------2--------|
|---2-----2---------2-----2-------0-------0-------0-------0----------|
|-0---------------3--------------------------------------------------|
|--------------------------------------------------------------------|


 Chorus
  Q  E Q  E E E Q  E Q  E E E Q  E Q  E E E Q  E Q  E E E
|-0--0-0--0-0-0-3--3-3--3-3-3-0--0-0--0-0-0-2--2-2--2-2-2----|
|-1--1-1--1-1-1-0--0-0--0-0-0-1--1-1--1-1-1-3--3-3--3-3-3----|
|-0--0-0--0-0-0-0--0-0--0-0-0-0--0-0--0-0-0-2--2-2--2-2-2----|
|-2--2-2--2-2-2-0--0-0--0-0-0-2--2-2--2-2-2-0--0-0--0-0-0----|
|-3--3-3--3-3-3-2--2-2--2-2-2-3--3-3--3-3-3------------------|
|---------------3--3-3--3-3-3--------------------------------|


  H    H    H    H    H    H
|-3----2----0----2----0----2----|
|-0----3----1----3----1----3----|
|-0----4----0----2----0----2----|
|-0----4----2----0----2----0----|
|-2----2----3---------3---------|
|-3-----------------------------|

 
  E E E Q  E S S E E E E Q  E S S E
|--------------------------------------|
|-------0----0h1-1-------0----0h1-1----|
|-----0----------------0---------------|
|---0------0---------0------0----------|
|--------------------------------------|
|-3----------------3-------------------|


 Interlude
  Q  E Q  E E E Q  E Q  E E E Q  E Q  E E E Q  E Q  E E E
|-0--0-0--0-0-0-2--2-2--2-2-2-0--0-0--0-0-0-2--2-2--2-2-2----|
|-2--2-2--2-2-2-2--2-2--2-2-2-2--2-2--2-2-2-2--2-2--2-2-2----|
|-1--1-1--1-1-1-2--2-2--2-2-2-1--1-1--1-1-1-2--2-2--2-2-2----|
|-2--2-2--2-2-2-0--0-0--0-0-0-2--2-2--2-2-2-0--0-0--0-0-0----|
|-0--0-0--0-0-0---------------0--0-0--0-0-0------------------|
|------------------------------------------------------------|


  Q  E Q  E E E Q  E Q  E E E Q  E Q  E E E Q  E Q  E E E
|-0--0-0--0-0-0-2--2-2--2-2-2-0--0-0--0-0-0-2--2-2--2-2-2----|
|-2--2-2--2-2-2-2--2-2--2-2-2-1--1-1--1-1-1-3--3-3--3-3-3----|
|-1--1-1--1-1-1-2--2-2--2-2-2-0--0-0--0-0-0-2--2-2--2-2-2----|
|-2--2-2--2-2-2-0--0-0--0-0-0-2--2-2--2-2-2-0--0-0--0-0-0----|
|-0--0-0--0-0-0---------------3--3-3--3-3-3------------------|
|------------------------------------------------------------|


  Q  E Q  E E E  Q  E Q  E E E Q  E Q  E E E Q  E Q  E E E
|-2--2-2--2-2-2--1--1-1--1-1-1-0--0-0--0-0-0-3--3-3--3-3-3---|
|-1--1-1--1-1-1--1--1-1--1-1-1-1--1-1--1-1-1-0--0-0--0-0-0---|
|-2--2-2--2-2-2--2--2-2--2-2-2-0--0-0--0-0-0-0--0-0--0-0-0---|
|-0--0-0--0-0-0--3--3-3--3-3-3-2--2-2--2-2-2-0--0-0--0-0-0---|
|----------------3--3-3--3-3-3-3--3-3--3-3-3-2--2-2--2-2-2---|
|----------------1--1-1--1-1-1---------------3--3-3--3-3-3---|


  Q  E Q  E E E
|-3--3-3--3-3-3----|
|-0--0-0--0-0-0----|
|-0--0-0--0-0-0----|
|-0--0-0--0-0-0----|
|-2--2-2--2-2-2----|
|-3--3-3--3-3-3----|


 Verse
  E E E E E E E E E E E E E E E E E E E E E E E E E E E E E E E E
|-------------------------------0-------2-------2--------------------|
|-------0-------0-------1-----1-------3-------3---------0-------0----|
|-----0-------0-------0-----0-------2-------2---------0-------0------|
|---0-------0-------2-----2-------0-------0---------0-------0--------|
|---------2-------3---------------------------------------2----------|
|-3-----------------------------------------------3------------------|


  E E E E E E E E E E E E E E E E E E E E E E E E E E E E E E E E
|-------------------------------0-------2-------2--------------------|
|-------0-------0-------1-----1-------3-------3---------0-------0----|
|-----0-------0-------0-----0-------2-------2---------0-------0------|
|---0-------0-------2-----2-------0-------0---------0-------0--------|
|---------2-------3---------------------------------------2----------|
|-3-----------------------------------------------3------------------|


  E E E E E E E E E E E E E E E E E E E E E E E E E E E E E E E E
|---------------0---------------0-------2-------2-------2-------2----|
|-------1-----1---------1-----1-------3-------3-------1-------1------|
|-----2-----2---------0-----0-------2-------2-------2-------2--------|
|---2-----2---------2-----2-------0-------0-------0-------0----------|
|-0---------------3--------------------------------------------------|
|--------------------------------------------------------------------|


 Ending Chorus
  Q  E Q  E E E Q  E Q  E E E Q  E Q  E E E Q  E Q  E E E
|-0--0-0--0-0-0-3--3-3--3-3-3-0--0-0--0-0-0-2--2-2--2-2-2----|
|-1--1-1--1-1-1-0--0-0--0-0-0-1--1-1--1-1-1-3--3-3--3-3-3----|
|-0--0-0--0-0-0-0--0-0--0-0-0-0--0-0--0-0-0-2--2-2--2-2-2----|
|-2--2-2--2-2-2-0--0-0--0-0-0-2--2-2--2-2-2-0--0-0--0-0-0----|
|-3--3-3--3-3-3-2--2-2--2-2-2-3--3-3--3-3-3------------------|
|---------------3--3-3--3-3-3--------------------------------|


  H    H    H    H    H    H    Q  E Q  E E E
|-3----2----0----2----0----2----3--3-3--3-3-3----|
|-0----3----1----3----1----3----0--0-0--0-0-0----|
|-0----4----0----2----0----2----0--0-0--0-0-0----|
|-0----4----2----0----2----0----0--0-0--0-0-0----|
|-2----2----3---------3---------2--2-2--2-2-2----|
|-3-----------------------------3--3-3--3-3-3----|


  H    H    H    H    H    H
|-3----2----0----2----0----2----|
|-0----3----1----3----1----3----|
|-0----4----0----2----0----2----|
|-0----4----2----0----2----0----|
|-2----2----3---------3---------|
|-3-----------------------------|


  Q  E Q  E E E Q  E Q  E E E W
|-1--1-1--1-1-1-0--0-0--0-0-0-3----|
|-1--1-1--1-1-1-1--1-1--1-1-1-0----|
|-2--2-2--2-2-2-0--0-0--0-0-0-0----|
|-3--3-3--3-3-3-2--2-2--2-2-2-0----|
|-3--3-3--3-3-3-3--3-3--3-3-3-2----|
|-1--1-1--1-1-1---------------3----|


www.guitarstars.biz
Tap to rate this tab
# A B C D E F G H I J K L M N O P Q R S T U V W X Y Z