Song name
# A B C D E F G H I J K L M N O P Q R S T U V W X Y Z

Jimmy Buffett - Steamer tab

Steamer
Jimmy Buffet

3/4 time ˙ ˙ Capo 2

Intro/Outro ˙ (beats) ˙/ . . / . . / . . / . . / . . / . . /
˙˙ ˙ ˙ ˙ ˙ ˙ (chords) ˙G ˙ ˙ C ˙ ˙ G ˙ ˙ C 
D C G ˙ ˙ C ˙ ˙ G
˙
˙˙ ˙ ˙ ˙ ˙ ˙ ˙ ˙ ˙ ˙ ˙ ˙ D ˙ ˙ ˙ ˙ G ˙ ˙ ˙ ˙ ˙ ˙ ˙ ˙ ˙ ˙C ˙ ˙ ˙ D
1) ˙ ˙ I remember ˙that ˙Steamer, ˙ ˙ the time you ˙set sail
2) ˙ ˙ I can see myself ˙dreaming, ˙ ˙the time you came home
3) ˙ ˙ I remember that ˙ winter, ˙ ˙first time we ˙made love ˙ ˙ ˙ ˙
5) Most of all it's that steamer, ˙ ˙ the time you ˙set sail

˙˙ ˙ ˙ ˙ ˙ ˙ ˙ ˙ ˙ ˙ ˙ G ˙ ˙ ˙ ˙D ˙ ˙ ˙ ˙ ˙ ˙ ˙Em ˙ ˙ ˙ ˙ ˙ ˙ 
C ˙ ˙ ˙D
˙˙ ˙ ˙ ˙The crowd was steaming, streaming, and leaning on the rail
˙˙ ˙ ˙ ˙Your face was gleaming, seeming ˙ ˙to ˙stand ˙ ˙ out alone
Oh, ˙I still kind ˙of shiver, a little at what I'm ˙thinking of ˙ ˙ ˙ ˙ How
Ah, the crowds always steaming, streaming, and leaning on the rail

˙˙ ˙ ˙ ˙   ˙           ˙G ˙ ˙D ˙ C ˙ ˙ ˙D ˙          
       ˙G ˙ ˙ ˙D ˙ C
Then the big whistle blew, ˙ ˙ ˙ and I lost ˙my ˙ ˙place
˙˙ ˙The dinner bell chimed ˙ ˙ ˙ and I found my ˙ ˙seat
your dress it just folded, ˙ ˙all down around your knees
Then the big whistle blows ˙ ˙and I always lose my place

˙˙ ˙ ˙ ˙ ˙ ˙ ˙ ˙Am ˙ ˙ ˙ ˙ ˙ ˙ ˙ ˙D ˙ ˙ ˙ ˙ ˙ ˙ ˙ ˙ ˙ ˙ ˙ ˙ G 
˙ ˙C ˙ ˙G
˙Next ˙thing I knew ˙ ˙ ˙ ˙ ˙ ˙ ˙ ˙ ˙I could not find your face.
˙Your eyes met mine ˙ ˙ ˙ ˙ ˙ ˙ ˙ ˙ ˙ ˙your smile ˙ was so sweet.
And I held my breath, my god, my girl, 'cause I could not believe. (Instr)
˙Next ˙thing I know, ˙ ˙ ˙ ˙ ˙ ˙ ˙ ˙ I ˙cannot ˙find ˙your face


4) Insturmental (use same chord pattern)

E-10-10-10-9---------------------------------------------------------|
B------------11-9----------------------------------------------------|
G-----------------11--------------------------------------9s11-------|
D----------------------------7-9-7-------9-9---9s11-12---------14----|
A------------------------7h9----------12-----------------------------|
E--------------------------------------------------------------------|


E--------------------------------------------------------------------------|
B--------------------------------------------------------------------------|
G------------11------------------11--13--14-14-14-------------------11-----|
D-14-14-14-------14--14-11----14-------------------14--12----12s14------14-|
A--------------------------------------------------------------------------|
E--------------------------------------------------------------------------|

E------------------------------------------------------------------------------|
B------------------------------------------------------------------------------|
G-----------11--13--14----13---11--------11--13--14----13----11----------------|
D-14-14-14---------------------------14----------------------------------------|
A------------------------------------------------------------------------------| Harmonica solo
E--------------------------------------------------------------- then verse 5--|
Instrumental note:˙
The 10-10-10-9 is actually a 9 bent to 10, then return to 9.
The 7th note on the lead is actually a 10 quickly bent to 11.
Not sure how to write that out without making it too complicated so I just
wrote the generic notes.
˙
˙˙ ˙
Tap to rate this tab
# A B C D E F G H I J K L M N O P Q R S T U V W X Y Z