Song name
# A B C D E F G H I J K L M N O P Q R S T U V W X Y Z

Jimmy Buffett - Margaritaville tab

e|--5--5--5--3-5----5--5--5--3--2-----5--5--7--5--5-3-2-0--|
B|--7--7--7--5--7----7--7--7--5--3-----7--7--8-7--7-5-3-2--|
G|-------------------------------------------------------------|
D|-------------------------------------------------------------|
A|-------------------------------------------------------------|
E|-------------------------------------------------------------|

e|--7--7--10--10-9----9---9---9---9-----2--5--5--2-7-5-3-2-3-2----|
B|--8--8--12--12--10- -10--10--10--10---------------------------------3--|
G|-----------------------------------------------------------------------|
D|-----------------------------------------------------------------------|
A|-----------------------------------------------------------------------|
E|-----------------------------------------------------------------------|


e|--3--3--3--2-0----2--2--2--0--------------------------------|
B|--5--5--5--3--2----3--3--3--2--3-----------------------------|
G|-------------------------------2-----------------------------|
D|-------------------------------------------------------------|
A|-------------------------------------------------------------|
E|-------------------------------------------------------------|
Tap to rate this tab
 
# A B C D E F G H I J K L M N O P Q R S T U V W X Y Z