Song name
# A B C D E F G H I J K L M N O P Q R S T U V W X Y Z

Jimmy Buffett - Only Time Will Tell chords

Highlighted       Show chord diagrams
-------------------------------------------------------------------------------
                          ONLY TIME WILL TELL - JIMMY BUFFETT
-------------------------------------------------------------------------------
Tabbed by: benjhalen
Email:

Tuning:  Standard Tuning, Capo 2nd Fret (Recommended)

I could never find this song anywhere on the internet so I finally sat down and tried it 
myself.  I do not have the best musical ear but this sounds Really Really close to what 
jimmy plays.

Guitar Rhythm repeated throughout the whole song ( C#minor, Bmajor, Amajor, Bmajor ) 
With the Capo.


With Capo 2nd Fret


      C#min      Bmaj      Amaj      Bmaj
e|------4---------0---------5---------0------------------------------------------|
B|------5---------4---------5---------4------------------------------------------|
G|------6---------4---------6---------4------------------------------------------|
D|------6---------4---------7---------4------------------------------------------|
A|------4---------0---------7---------0------------------------------------------|
E|------X---------0---------5---------0------------------------------------------|

The Bmajor has the shape of an A because of the capo.  makes it a tiny bit easier to play.


Without Capo

e|------4---------2---------0---------2------------------------------------------|
B|------5---------4---------2---------4------------------------------------------|
G|------6---------4---------2---------4------------------------------------------|
D|------6---------4---------2---------4------------------------------------------|
A|------4---------2---------0---------2------------------------------------------|
E|------X---------X---------0---------X------------------------------------------|
Tap to rate this tab
 
# A B C D E F G H I J K L M N O P Q R S T U V W X Y Z