Song name
# A B C D E F G H I J K L M N O P Q R S T U V W X Y Z

Jimmy Buffett - Bama Breeze tab

E/-------8b10-5-------------------------------------------|
this is the second solo to the song bama breeze my jimmy BUFFET no bufetta 



B/-----6--------8h10p8-6-8b10-6-6-----------10-------10---|
G/-3/5------------------------------10h12p10----10-10-----|
D/-------------------------------12-----------------------|
A/--------------------------------------------------------|
E/--------------------------------------------------------|

E----------10--------------------------13-------18-------|
B-------10----13--10-------------13-15----20b22----20b22-|
G-12b14--------------12-10-12/14-------------------------|
D--------------------------------------------------------|
A--------------------------------------------------------|
E--------------------------------------------------------|


E-----------------------------------------------------|
B-20-20-20b22-18----18--------------------------------|
G----------------19-----------------------------------|
D-----------------------------------------------------|
A-----------------------------------------------------|
E-----------------------------------------------------|
Tap to rate this tab
# A B C D E F G H I J K L M N O P Q R S T U V W X Y Z