Song name
# A B C D E F G H I J K L M N O P Q R S T U V W X Y Z

Jimmy Chamberlin Complex - Loki Cat tab

www.jimmychamberlincomplex.com


X===============================PLEASE NOTE==============================X
X  This tab is all my own and represents my interpretation of the song.  X
X You may only use this tab for private study, scholarship, or research. X
X  Do not change, deface, mutilate, or in any other way alter this tab.  X
X   You must email me first if you want to use this tab on your site.    X
X========================================================================X


Loki Cat
Transcribed by Hugo Rios
XYUMachine@hotmail.com


Tuning: E A D G B E


VERSES/CHORUSES

|--12-12-------12-12----------12-12-------12-12--------|
|-----------10----------10-------------10----------10--|
|--------12----------12-------------12----------12-----|
|------------------------------------------------------|
|------------------------------------------------------|
|------------------------------------------------------|

|--12-12-------12-12----------10-10--------------------|
|-----------10----------10----------------13-13--------|
|--------12----------12----------------10--------------|
|-----------------------------------12----------12-13--|
|------------------------------------------------------|
|------------------------------------------------------|

BRIDGE 1
"I gaze into the sun..."
|--12----12--|
|--10----10--|
|--12----12--|
|------------|
|------------|
|------------|

BRIDGE 2
			2x's

"You and You are true..."
|--12-----------12---------|
|--10-----10----10-----10--|
|--12--12-------12--12-----|
|--------------------------|
|--------------------------|
|--------------------------|
Tap to rate this tab
# A B C D E F G H I J K L M N O P Q R S T U V W X Y Z