Song name
# A B C D E F G H I J K L M N O P Q R S T U V W X Y Z

Jimmy Eat World - 122395 tab

Help us improve GuitareTab! Take a short survey!
-------------------------------------------------------------------------------
			12.23.95 - Jimmy Eat World
-------------------------------------------------------------------------------
Tabbed by: Kroach
Email: mxhall@gmail.com

Tuning: Standard

I've tabbed out the main instruments you can hear and added some information 
at the bottom of some parts to help you see where they fit. 
As for the rythm you can just follow the song, it should be pretty 
straightforward. (<3 this song) Hope you enjoy the tab.



Distorted synth part:

e|-5-5-7-5-------------------------------------------------------------------|
B|---------5-----(10x)-------------------------------------------------------|
G|-----------7---------------------------------------------------------------|
D|---------------------------------------------------------------------------|
A|---------------------------------------------------------------------------|
E|---------------------------------------------------------------------------|


e|-5-7-5-----5--5-5-5-7-5------5-5-5-5---------------------------------------|
B|-------5----------------5--------------------------------------------------|
G|---------7----------------7------------------------------------------------|
D|---------------------------------------------------------------------------|
A|---------------------------------------------------------------------------|
E|---------------------------------------------------------------------------|



Guitar part:

e|--------------7------------------------------------------------------------|
B|-----10----10---10------(4x)-----------------------------------------------|
G|---9-----9-----------------------------------------------------------------|
D|-7-----0----------------...------------------------------------------------|
A|---------------------------------------------------------------------------|
E|---------------------------------------------------------------------------|


e|---------------7-----------------------------------------------------------|
B|-----10-----10---10-------------------10-----10---10-----------------------| 
G|---9----7-9------------...----------9----7-9----9--------------------------| 
D|-7--------------------------------7----------------------------------------|
A|---------------------------------------------------------------------------|
E|---------------------------------------------------------------------------|
(comes in with voice) didn't mean to leave you..


e|-10-10-10-10-10-10-10-10---------------------------------------------------|
B|-10-10-10-10-10-10-10-10---------------------------------------------------| 
G|-7--7--7--7--7--7--7--7----------------------------------------------------| 
D|---------------------------------------------------------------------------|
A|---------------------------------------------------------------------------|
E|---------------------------------------------------------------------------|
(in the background just before) I didn't know what to say...



Nice synth part:

e|---------9-----------------------------9----9------------------------------|
B|---10-12---12-----10---10-12-----10-12---12---12-----10---10-12------------|
G|-9--------------9----9---------9-------------------9----9-------9----------|
D|---------------------------------------------------------------------------|
A|---------------------------------------------------------------------------|
E|---------------------------------------------------------------------------|


e|---------9-------------------------------9----9----------------------------|
B|---10-12---12----10---10-12-10-----10-12---12---12----10---10-12-----------|
G|-9-------------9----9-----------9-------------------9----9-------9---------|
D|---------------------------------------------------------------------------|
A|---------------------------------------------------------------------------|
E|---------------------------------------------------------------------------|



Bass part:

(All bass lines are played one octave lower the 2nd time round)

G|-2-2-2-2-2-2-...-----------------------------------------------------------| 
D|---------------------------------------------------------------------------| 
A|-------------------------5-5-5-4-4-2-2-------------------------------------| 
E|---------------------------------------------------------------------------|  
(Comes in with voice) didn't mean to leave you...


G|---------------------------------------------------------------------------|
D|-2-2-0---2-2-0---2-2-0---2-2-2-4-0-----------------------------------------| 
A|-------------------------------------5-5-5-4-4-2-2-------------------------|
E|---------------------------------------------------------------------------|


G|---------------------------------------------------------------------------|
D|-2-2-0---2-2-0---2-2-0---2-2-2-4-0--0-0-0----------------------------------| 
A|---------------------------------------------------------------------------|
E|---------------------------------------------------------------------------|


G|---------------------------------------------------------------------------| 
D|---------------------------------------------------------------------------|
A|-0-0-0-0-0-0-0-0-...-------------------------------------------------------| 
E|---------------------------------------------------------------------------|
merry christmas babe..

"..." means repeat a few times
Related for 122395 tab