Guitaretab - guitar tabs
Song name
# A B C D E F G H I J K L M N O P Q R S T U V W X Y Z

Jimmy Eat World - No Sensitivity Acoustic tab

Tabbed by: Ruben
Email:x5rubbles5x@yahoo.com
Tuning: drop D


Intro& Verse
X6
e----0-0-0-0-0-0-0-0-0-0-0-0-0-0-0-0-0-0-----0-0-0-0-0-0-0----------------|
B---0-0-0-0-0-0-0-0-0-0-0-0-0--0-0-0-0-0----0-0-0-0-0-0-0-----------------|
G---4-4-4-4-4-4-4-4-4-4-4-4-2-2-2-2-2-2-----2-2-2-2-2-2-2-----------------|
D---2-2-2-2-2-2-2-2-2-2-2-2-2-2-2-2-2-2-----2-2-2-2-2-2-2-----------------|
A---4-4-4-4-4-2-2-2-2-2-2-2-0-0-0-0-0-0-----0-0-0-0-0-0-0-----------------|
D-------------------------------------------------------------------------|

Bridge

e-------------------------------------------|
B-------------------------------------------|
G-------------------------------------------|
D-4-4-4-4-4-4-4-4-4-6-8-9-9-9-9-9-9-9-9-9-9-|
A-2-2-2-2-2-2-2-2-2-4-6-7-7-7-7-7-7-7-7-7-7-|
D-2-2-2-2-2-2-2-2-2-4-6-7-7-7-7-7-7-7-7-7-7-|

Chorus
[ Tab from: http://www.guitaretab.com/j/jimmy-eat-world/118180.html ]
The world donít spinÖ.
e-0-0-0-0-0-0-0-0-0-0-0-0-0-0-0-0-0-0-0-0-0-0-0-0-0-0-0-0-0-0-0-0-0-0-0-0-|
B-0-0-0-0-0-0-0-0-0-0-0-0-0-0-0-0-0-0-0-0-0-0-0-0-0-0-0-0-0-0-0-0-0-0-0-0-|
G-6-6-6-6-6-6-6-6-6-2-2-2-2-2-2-2-2-2-4-4-4-4-4-4-4-4-4-2-2-2-2-2-2-2-2-2-|
D-6-6-6-6-6-6-6-6-6-2-2-2-2-2-2-2-2-2-4-4-4-4-4-4-4-4-4-2-2-2-2-2-2-2-2-2-|
A-4-4-4-4-4-4-4-4-4-0-0-0-0-0-0-0-0-0-2-2-2-2-2-2-2-2-2-0-0-0-0-0-0-0-0-0-|
D-4-4-4-4-4-4-4-4-4-0-0-0-0-0-0-0-0-0-2-2-2-2-2-2-2-2-2-0-0-0-0-0-0-0-0-0-|


Intro
Versex2
Bridgex2
Chorusx2
Breakdown (same as chorus just slower rhythm)
Solo (donít know)
 Chorusx1
Play chorus chords till song ends and youíre done

Listen to song for exact rhythm I am pretty sure the chords are all right except for
last one which I canít make out.  I know its not prefect, but its no sensitivity
and the only acoustic tab I think thatís out there.  Donít know the solo if anyone else 
let me know itís the only part Iím missing.
Related for No Sensitivity Acoustic tab