Song name
# A B C D E F G H I J K L M N O P Q R S T U V W X Y Z

Jimmy Eat World - Ten tab

Song: Ten
Album: Clarity
Artist: Jimmy Eat World
Part: Intro
Tabbed By: Nathan Zwiener
I tabbed this because the other tabs I found didn't have the intro correct.

Guitar 1 - Strum this over and over, quietly.
e|-----2-----|
B|-----2-----|
G|-----2-----|
D|-----------|
A|-----------|
E|-----------|

Guitar 2
e|---0-----------0-------------------2-----------2---2-----------2-|
B|-----2-------2-----0-----------0-----3-------3-------3-------3---|
G|-------2---2---------1-------1---------2---2-----------2---2-----|
D|---------2-------------2---2-------------0---------------0-------|
A|-0-----------------------2---------------------------------------|
E|-----------------4---------------2---------------2---------------|

Guitar 3
e|-----------------------------------3-----0---0-----3-----0---0---|
B|-------------------------------------2-----1---1-----2-----1---1-|
G|---------------------------------3-----3---------3-----3---------|
D|-----------------------------------------------------------------|
A|-----------------------------------------------------------------|
E|-----------------------------------------------------------------|
Tap to rate this tab
# A B C D E F G H I J K L M N O P Q R S T U V W X Y Z