Song name
# A B C D E F G H I J K L M N O P Q R S T U V W X Y Z

Jimmy Eat World - Last Christmas tab

			     Last Christmas - Jimmy Eat World
-------------------------------------------------------------------------------
Tabbed by:Ace

Tuning: Standard                                  
    Intro                                         (0:08)
|------------|-----------|-----------|------------|----------------|
|-2-3-5--5-3-|-3-5-5-7-3-|-3-2-3-2-2-|-3-2-3-2-0--|0-7-5--5-7-8-7-5|
|------------|-----------|-----------|------------|----------------|
|------------|-----------|-----------|------------|----------------|
|------------|-----------|-----------|------------|----------------|
|------------|-----------|-----------|------------|----------------|
 (0:11)
|------------------------------------------------------------------|
|-2-2-3-2-2--3-2---------------------------------------------------|
|----------------2-------------------------------------------------|
|------------------------------------------------------------------|
|------------------------------------------------------------------|
|------------------------------------------------------------------|
    (0:16)                                        (0:23)
|------------|-----------|-----------|------------|----------------|
|----5-5-3---|-3-5-5-7-3-|-3-2-3-2-2-|-3-2-3-2-0--|0-7-5--5-7-8-7-5|
|------------|-----------|-----------|------------|----------------|
|------------|-----------|-----------|------------|----------------|
|------------|-----------|-----------|------------|----------------|
|------------|-----------|-----------|------------|----------------|
 (0:27)
|------------------------------------------------------------------|
|-2-2-3-2-2--3-2---------------------------------------------------|
|----------------2-------------------------------------------------|
|------------------------------------------------------------------|
|------------------------------------------------------------------|
|------------------------------------------------------------------|


    Chorus (2x):
D
Last Christmas I gave you my heart
Bm
But the very next day you gave it away
Em
This year to save me from tears
A
I'll give it to someone special

SOLO (1:00)
|-10----9-7-------10-9-10-7---10-9-10------------------------------|
|-----------7-------------------------10---------------------------|
|------------------------------------------------------------------|
|------------------------------------------------------------------|
|------------------------------------------------------------------|
|------------------------------------------------------------------|

   (High Synth Part played second time through solo) (1:17)
|-14-12-14-17-14-------12-14-17-14----12---------------------------|
|------------------------------------------------------------------|
|------------------------------------------------------------------|
|------------------------------------------------------------------|
|------------------------------------------------------------------|
|------------------------------------------------------------------|


  Chorus (2x)

  Second Part of Intro Again

  Verse (2x):
D
A face on a lover with a fire in his heart
Bm
A man under cover but you tore me apart
Em
Now I've found a real love (now I've found)
A
You'll never fool me again

D
A face on a lover with a fire in his heart
Bm
A man under cover buy you tore him apart
Em
Maybe next year I'll give it to someone
A
I'll give it to someone special

   Outtro (3:35)
Part 1:
|-12-14-12-14-17-14--12-14-12-14-17-14--12-14-17-14----------------|
|------------------------------------------------------------------|
|------------------------------------------------------------------|
|------------------------------------------------------------------|
|------------------------------------------------------------------|
|------------------------------------------------------------------|

Part 2:
|-10----9-7-------10-9-10-7---10-9-10------------------------------|
|-----------7-------------------------10---------------------------|
|------------------------------------------------------------------|
|------------------------------------------------------------------|
|------------------------------------------------------------------|
|------------------------------------------------------------------|
Tap to rate this tab
# A B C D E F G H I J K L M N O P Q R S T U V W X Y Z