Guitaretab - guitar tabs
Song name
# A B C D E F G H I J K L M N O P Q R S T U V W X Y Z

Jimmy Eat World - Shame tab

Band: Jimmy Eat World	
Song: Shame
Album: Futures (Bonus Track)

Drop D Tuning

Chords used:

e|------------------------------|
B|------------------------------|
G|------5---3-------------------|
D|--3---5---3-----8--0---5---7--|
A|--3---3---1-or--8--0---5---7--|
D|--3-------------8--0---5---7--|
    F5  C5  Bb5      D5  G5  A5

Gtr 1: Intro&Verses

e|---------------------------------------------------------------------|
B|---------------------------------------------------------------------|
G|---------------------------------------------------------------------|
D|-------------------5-5-5-5-5-5-5-5--3-3-3-3-3-3-3-3-3-3-3-3-3-3-3-3--|
A|--3-3-3-3-3-3-3-3--3-3-3-3-3-3-3-3--1-1-1-1-1-1-1-1-1-1-1-1-1-1-1-1--|
D|--3-3-3-3-3-3-3-3----------------------------------------------------|

repeat it as needed

Chorus:

e|----------------------------------------------------------------------|
B|----------------------------------------------------------------------|
G|-3333333333333333--------------------------------------------55555555-|
D|-3333333333333333-0000000000000000-5555555555555555-33333333-55555555-|
A|-1111111111111111-0000000000000000-5555555555555555-33333333-33333333-|
D|------------------0000000000000000-5555555555555555-33333333----------|

Gtr 2: 1st solo (during 2nd Verse)

while gtr1 plays the verses' chords, grt2 plays this:
[ Tab from: http://www.guitaretab.com/j/jimmy-eat-world/139916.html ]
e|-------------------------------------------------------|
B|-------------------------------------------------------|
G|---------------5-5-------------------------------------|
D|-7-7-7-7-5-5-3-----3--5p3-33-5/7-8-3--5p3-33-5/7-8-3-5-|
A|-------------------------------------------------------|
D|-------------------------------------------------------|

e|--------------------------------------------------|
B|-6-6-6-6-6-6-5-5----------------------6-5-3-5-5/6-|
G|---------------------5----------------------------|
D|-7-7-7-7-5-5-3-3-2h3----3p2-22-2h3----7-5-3-3-3-7-|
A|-----------------------------------5--------------|
D|--------------------------------------------------|


Repeat Verse
Repeat Chorus x2

Gtr 2: 2nd Solo
  Bb5      D5            A5     Bb5                F5
e|--------------------------------------------|x5|----|
B|--------------------------------------------|  |----|
G|----9-10----10-9----9----9-10----10-9----9--|  |-10-|(play this the 
D|--8-------7-------7----8-------8-------8----|  |----| last time)
A|--------------------------------------------|  |----| 
D|--------------------------------------------|  |----| 

Gtr 1 plays the chords written above the notes

Repeat Verse
Repeat Chorus x2

End on F5

Outro:

e|-----------|x6
B|-----------|
G|-----------|
D|---5-5-----|
A|---3-3-3---|
D|-------3---|

That's It. Great Song!
Related for Shame tab
Advertisement will be closed in 10 seconds