Song name
# A B C D E F G H I J K L M N O P Q R S T U V W X Y Z

Jimmy Eat World - Too Far Gone tab

the intro is really easy
STANDARD TUNING

e/--------------------------------------------/------------------------------------|
B/-----0----------0----------0----------0-----/------0--------0------0--------0----|
G/-------2----------2----------2----------2---/-----2--2--------2-------2-------2--|
D/---2---------2-----------2---------2--------/---0---------0-------0-------0------|
A/--O-----------------------------------------/------------------------------------|
E/--------------------------------------------/------------------------------------|


e/------------------------/------------------------/---------------------------------|
B/--------0----------0----/-------0---------0------/-----0------0-----0-----0--------|
G/-----2----2----------2--/------2--2---------2----/---2---2-----2-----2-------------|
D/---4-----------4--------/----2----------2--------/--0-------0-----0-----0---2------|
A/------------------------/------------------------/---------------------------------|
E/------------------------/------------------------/---------------------------------|

               Do this whole thing 4x
Tap to rate this tab
# A B C D E F G H I J K L M N O P Q R S T U V W X Y Z