Guitaretab - guitar tabs
Song name
# A B C D E F G H I J K L M N O P Q R S T U V W X Y Z

Jimmy Eat World - Firefight tab

 --------------------------------------------
         Jimmy Eat World - Firefight 
 --------------------------------------------
Tabbed by: Brodie Widdifield
Email: brofuju@hotmail.com

Tuning: Eb standard (down a half step)

NOTE:
E/G#5 is played:

Eb---
Bb---
Gb---
Db-6-
Ab-7-
Eb-4-



Intro:

Eb-----2-------2-------2-------2---|-----2-------2-------2-------2---|
Bb---0---0---0---0---0---0---0---0-|---0---0---0---0---0---0---0---0-|
Gb---------------------------------|---------------------------------|
Db-2-------2-------2-------2-------|---------------------------------|
Ab---------------------------------|-2-------2-------2-------2-------|
Eb---------------------------------|---------------------------------|


Eb-----2-------2-------2-------2---|-----2-------2-------2-------2---|
Bb---0---0---0---0---0---0---0---0-|---0---0---0---0---0---0---0---0-|
Gb---------------------------------|---------------------------------|
Db---------------------------------|-2-------2-------2-------2-------|
Ab-4-------4-------0-------0-------|---------------------------------|
Eb---------------------------------|---------------------------------|


(Intro riff)
This is where our diligence has lead
The waves roll in to claim our patient steps
Can we become more than just ourselves?
And leave the sand, our want, our will, our doubt
[ Tab from: http://www.guitaretab.com/j/jimmy-eat-world/163183.html ]
	    C#m   A         E
It's firefight  I.. I won't run.
                   C#m   A              E
There's spit and spite all through my blood
   C#m		        A               E
For you and me, there's nowhere left to hide
       E/G#5               A5     F#5    E 
Except you and me, there's no one else alive


(Intro riff)
This is now the moment after next.
Are these still the eyes of the temptress?
Why open the door if you won't go?
Don't ask twice if you don't wanna know.


	    C#m   A         E
It's firefight  I.. I won't run.
                   C#m   A              E
There's spit and spite all through my blood
   C#m		        A               E
For you and me, there's nowhere left to hide
       E/G#5               A5     F#5    E 
Except you and me, there's no one else alive


             C#m
Is there an answer?
               A		                    E
And if it's an honest one, honestly worth it's question
          B
There's no question
                C#m
The city as my witness
            A				      E
I am who I wanna be, but you could be anything
                     B
Just be anything here with me.


(Intro riff)
Love is quartz and breath the secondhand
If you let go then that's where time will stand.


	    C#m   A         E
It's firefight  I.. I won't run.
                   C#m   A              E
There's spit and spite all through my blood
   C#m		        A               E
For you and me, there's nowhere left to hide
       E/G#5               A5     F#5    E 
Except you and me, there's no one else alive (x2)


Fade out intro riff

===============================================================================
Related for Firefight tab
Advertisement will be closed in 10 seconds