Song name
# A B C D E F G H I J K L M N O P Q R S T U V W X Y Z

Jimmy Eat World - The Middle tab

In The Middle - Solo


e---------------------------------------------------------------|
B--2h3p2p0------------------------------------------------------|
G----------2h4p2p0----------------------------------------------|
D-------------------4h5p4p0-------------4h5p4p0-------0---------|
A-----------------------------4h5p4p0--------------4------------|
D---------------------------------------------------------------|

e-------------------------------------------------------------|
B-------------------------------------------------------------|
G-------------------------------------------------------------|
D-----0h2---0----0-------0---0h2p0---0------------------------|
A--4-----------4--------4--------------4----------------------|
D-----------------------------------------------0-------------|

e---------------------------------------------------------------|
B--2h3p2p0------------------------------------------------------|
G----------2h4p2p0----------------------------------------------|
D-------------------4h5p4p0-------------4h5p4p0-------0---------|
A-----------------------------4h5p4p0--------------4------------|
D---------------------------------------------------------------|

e-------------------------------------------------------|
B-------------------------------------------------------|
G-------------------------------------------------------|
D-------0(x8)-2(x8)-4(x8)-5---5-------------------------|
A----4--------------------------------------------------|
D-------------------------------------------------------|


e------------------------------------------------------------|
B------------------------------------------------------------|
G------------------------------------------------------------|
D---7--5-4-5---4-5--5h7--5-4-5---4-0-------------------------|
A------------------------------------------------------------|
D------------------------------------------------------------|


e----------------------------------------------------------------|
B----------------------------------------------------------------|
G---7----7-7h9-----9-9h11---11-11h12--11-12----------------------|
D-----0--------0----------0--------------------------------------|
A----------------------------------------------------------------|
D----------------------------------------------------------------|


e--10(x8)-9(x8)-7(x8)-5(x8)-------|
B---------------------------------|
G---------------------------------|
D---------------------------------|
A---------------------------------|
D---------------------------------|


e--0---0---0---0---0----------|
B--8---7---5---3---2---0------|
G-----------------------------|
D-----------------------------|
A-----------------------------|
D-----------------------------|
Tap to rate this tab
 
# A B C D E F G H I J K L M N O P Q R S T U V W X Y Z