Song name
# A B C D E F G H I J K L M N O P Q R S T U V W X Y Z

Jimmy Eat World - Futures tab

this is the intro riff of futures, if you think its wrong then figure it out your self. 
hope this helps.

they play it in half-step down like most of the other songs on futures


guitar 1:
eb|--------------------------------------------------------|
bb|--------------------------------------------------------|
gb|--------------------------------------------------------|
db|--------------------------------------------------------|
ab|---------9----12-11-------------------9---12-11---------|
eb|0-12p7p0---7--------12-7-12--0-12p7p0---7-------12-0-3~-|

eb|-------------------------------------------------------------------|
bb|-------------------------------------------------------------------|
gb|-------------------------------------------------------------------|
db|-------------------------------------------------------------------|
ab|---------9----12-11-------------------9---12-11------12-11---------|
eb|0-12p7p0---7--------12-7-12--0-12p7p0---7-------12-7-------12-7h12-|


guitar 2:
eb|----------------------------------------------|
bb|----------------------------------------------|
gb|----------------------------------------------|   play
db|2-2---2-2---2-2---2-2---2-2---2-2---2-2---2-2-|   2x's
ab|2-2---2-2---2-2---2-2---2-2---2-2---2-2---2-2-|
eb|0-0---0-0---0-0---0-0---0-0---0-0---0-0---0-0-|


3rd guitar cums in after the 1st half of the riff
guitar 3:
eb|------------5-4--------------------5-4-------|
bb|--5p0---7p0-----5---5----5p0---7p0-----5-----|
gb|------------------4----------------------4-0-|
db|2-----2----------------2-----2---------------|
ab|---------------------------------------------|
eb|---------------------------------------------|

eb|------------5-4--------------------5-4-----5-4-----|
bb|--5p0---7p0-----5---5----5p0---7p0-----5-------5-5-|
gb|------------------4----------------------4------4--|
db|2-----2----------------2-----2---------------------|
ab|---------------------------------------------------|
eb|---------------------------------------------------|
Tap to rate this tab
# A B C D E F G H I J K L M N O P Q R S T U V W X Y Z