Song name
# A B C D E F G H I J K L M N O P Q R S T U V W X Y Z

Jimmy Eat World - Sweetness tab


verse
E----------------------------------------|
B----------------------------------------|
G---10--10--10--10--10--10--10--10--10---|
D---10--10--10--10--10--10--10--10--10---| 
A---8---8---8---8---8---8---8---8---8----|
D----------------------------------------|
                                                                                       
E----------------------------------------|
B----------------------------------------|
G---9---9---9---9---9---9---9---9---9----|
D---9---9---9---9---9---9---9---9---9----| x2
A---7---7---7---7---7---7---7---7---7----|
D---7---7---7---7---7---7---7---7---7----|       

chorus
E------------------------------------------------------------------|
B------------------------------------------------------------------|
G------------------------------------------------------------------|
D---8---8---8---8---8---8---8---10---10---10---10---10---10---10---| 
A---8---8---8---8---8---8---8---10---10---10---10---10---10---10---|
D---8---8---8---8---8---8---8---10---10---10---10---10---10---10---|

E----------------------------------------|
B----------------------------------------|
G---9---9---9---9---9---9---9---9---9----|
D---9---9---9---9---9---9---9---9---9----| 
A---7---7---7---7---7---7---7---7---7----|
D----------------------------------------|

bridge
E-----------------------------------------------------------|
B-----------------------------------------------------------|
G-----------------------------------------------------------|
D---5---5---5---5---5---5---5---8---8---8---8---8---8---8---| 
A---5---5---5---5---5---5---5---8---8---8---8---8---8---8---|
D---5---5---5---5---5---5---5---8---8---8---8---8---8---8---|


Verse
Chorus
Verse
Chorus
Bridge
Verse
Chorus
Verse
Tap to rate this tab
# A B C D E F G H I J K L M N O P Q R S T U V W X Y Z