Song name
# A B C D E F G H I J K L M N O P Q R S T U V W X Y Z

Jimmy Eat World - Sweetness tab

ok so i've noitced there are no tabs for this song that are 100%
so i worked with it and i think i've found the right way to play it 
judge for urself please  


Drop D Tuning ( DADGBE )


 
E|-------------------------|
B|-------------------------|
G|-9-9-999999--9-9-9999999-|4x
D|-x-x-xxxxxx--x-x-xxxxxxx-|
A|-7-7-777777--7-7-7777777-|
D|-------------------------|

        Guitar 2 Intro-Clean


E|----------------------------------------|
B|-1-1-1-11-11-111111--1-1-1-11-11-111111-|
G|-X-X-X-XX-XX-XXXXXX--x-x-x-xx-xx-xxxxxx-|
D|-3-3-3-33-33-333333--3-3-3-33-33-333333-|
A|-3-3-3-33-33-333333--3-3-3-33-33-333333-|
D|----------------------------------------|



	Guitar 1 Chrous
E|---------------------------------------------------------------------|
B|---------------------------------------------------------------------|
G|--------------------------------------------7/999999-------7/9999999-|
D|-8-8-8-88-88-8--10-10-10-1010-1010-10--0-0--X/XXXXXX--0-0--X/XXXXXXX-|
A|-8-8-8-88-88-8--10-10-10-1010-1010-10--0-0--5/777777--0-0--5/7777777-|
D|-8-8-8-88-88-8--10-10-10-1010-1010-10--0-0------------0-0------------|


E|-----------------------------------------------------------------------|
B|-----------------------------------------------------------------------|
G|-----------------------------------------------5-555555-------5-555555-|
D|-8-8-8-88-88-8--10-10-10-10-1010-1010-10--3-3--X-XXXXXX--3-3--X-XXXXXX-|
A|-8-8-8-88-88-8--10-10-10-10-1010-1010-10--3-3--3-333333--3-3--3-333333-|
D|-8-8-8-88-88-8--10-10-10-10-1010-1010-10--3-3------------3-3-----------|


	Guitar 2 Chrous
E|-----------------------------------------------------|
B|-----------------------------------------------------|
G|-----------------------------------------------------|
D|-8-8-8-88-88-8--10-10-10-1010-1010-10--0-0-0-00-00-0-|
A|-8-8-8-88-88-8--10-10-10-1010-1010-10--0-0-0-00-00-0-|
D|-8-8-8-88-88-8--10-10-10-1010-1010-10--0-0-0-00-00-0-|


E|-----------------------------------------------------|
B|-----------------------------------------------------|
G|-----------------------------------------------------|
D|-8-8-8-88-88-8--10-10-10-1010-1010-10--3-3-3-33-33-3-|
A|-8-8-8-88-88-8--10-10-10-1010-1010-10--3-3-3-33-33-3-|
D|-8-8-8-88-88-8--10-10-10-1010-1010-10--3-3-3-33-33-3-|

          Guitar 1

E|-------------------------|
B|-------------------------|
G|-9-9-999999--9-9-9999999-|4x
D|-x-x-xxxxxx--x-x-xxxxxxx-|
A|-7-7-777777--7-7-7777777-|
D|-------------------------|

          Guitar 2-Clean


E|----------------------------------------|
B|-1-1-1-11-11-111111--1-1-1-11-11-111111-|
G|-X-X-X-XX-XX-XXXXXX--x-x-x-xx-xx-xxxxxx-|
D|-3-3-3-33-33-333333--3-3-3-33-33-333333-|
A|-3-3-3-33-33-333333--3-3-3-33-33-333333-|
D|----------------------------------------|



    
          Guitar 1                                                               
E|---------------------------------------------------------------------|
B|---------------------------------------------------------------------|
G|--------------------------------------------7/999999-------7/9999999-|
D|-8-8-8-88-88-8--10-10-10-1010-1010-10--0-0--X/XXXXXX--0-0--X/XXXXXXX-|
A|-8-8-8-88-88-8--10-10-10-1010-1010-10--0-0--5/777777--0-0--5/7777777-|
D|-8-8-8-88-88-8--10-10-10-1010-1010-10--0-0------------0-0------------|


E|---------------------------------------------------------------------|
B|---------------------------------------------------------------------|
G|-----------------------------------------------5-555555--------------|
D|-8-8-8-88-88-8--10-10-10-10-1010-1010-10--3-3--X-XXXXXX--3-3--XXXXXX-|
A|-8-8-8-88-88-8--10-10-10-10-1010-1010-10--3-3--3-333333--3-3--XXXXXX-|
D|-8-8-8-88-88-8--10-10-10-10-1010-1010-10--3-3------------3-3--XXXXXX-|




          Guitar 2
E|-----------------------------------------------------|
B|-----------------------------------------------------|
G|-----------------------------------------------------|
D|-8-8-8-88-88-8--10-10-10-1010-1010-10--0-0-0-00-00-0-|
A|-8-8-8-88-88-8--10-10-10-1010-1010-10--0-0-0-00-00-0-|
D|-8-8-8-88-88-8--10-10-10-1010-1010-10--0-0-0-00-00-0-|


E|-----------------------------------------------------|
B|-----------------------------------------------------|
G|-----------------------------------------------------|
D|-8-8-8-88-88-8--10-10-10-1010-1010-10--3-3-3-33-33-3-|
A|-8-8-8-88-88-8--10-10-10-1010-1010-10--3-3-3-33-33-3-|
D|-8-8-8-88-88-8--10-10-10-1010-1010-10--3-3-3-33-33-3-|

             Both Guitars

E|------------------------------------------------|-|----------|
B|------------------------------------------------|-|----------|
G|------------------------------------------------|-|----------|
D|-5-5-5-55-55-5-5-8-8-8-88-88-8-8-3-3-3-33-33-3-3|-|3333333---|
A|-5-5-5-55-55-5-5-8-8-8-88-88-8-8-3-3-3-33-33-3-3|-|3333333---|
D|-5-5-5-55-55-5-5-8-8-8-88-88-8-8-3-3-3-33-33-3-3|-|3333333---|



E|----------------------------------|-|-------|
B|----------------------------------|-|-------|
G|----------------------------------|-|-------|
D|-555555555555--8888--333333333333-|-|-xxxxx-|
A|-555555555555--8888--333333333333-|-|-xxxxx-|
D|-555555555555--8888--333333333333-|-|-xxxxx-|
                                        Mute Strings 


               Guitar 1 Chrous                         

E|---------------------------------------------------------------------|
B|---------------------------------------------------------------------|
G|--------------------------------------------7/999999-------7/9999999-|
D|-8-8-8-88-88-8--10-10-10-1010-1010-10--0-0--X/XXXXXX--0-0--X/XXXXXXX-|
A|-8-8-8-88-88-8--10-10-10-1010-1010-10--0-0--5/777777--0-0--5/7777777-|
D|-8-8-8-88-88-8--10-10-10-1010-1010-10--0-0------------0-0------------|


E|-----------------------------------------------------------------------|
B|-----------------------------------------------------------------------|
G|-----------------------------------------------5-555555-------5-555555-|
D|-8-8-8-88-88-8--10-10-10-10-1010-1010-10--3-3--X-XXXXXX--3-3--X-XXXXXX-|
A|-8-8-8-88-88-8--10-10-10-10-1010-1010-10--3-3--3-333333--3-3--3-333333-|
D|-8-8-8-88-88-8--10-10-10-10-1010-1010-10--3-3------------3-3-----------|
                                                                            

	Guitar 2 Chrous
E|-----------------------------------------------------|
B|-----------------------------------------------------|
G|-----------------------------------------------------|
D|-8-8-8-88-88-8--10-10-10-1010-1010-10--0-0-0-00-00-0-|
A|-8-8-8-88-88-8--10-10-10-1010-1010-10--0-0-0-00-00-0-|
D|-8-8-8-88-88-8--10-10-10-1010-1010-10--0-0-0-00-00-0-|


E|-----------------------------------------------------|
B|-----------------------------------------------------|
G|-----------------------------------------------------|
D|-8-8-8-88-88-8--10-10-10-1010-1010-10--3-3-3-33-33-3-|
A|-8-8-8-88-88-8--10-10-10-1010-1010-10--3-3-3-33-33-3-|
D|-8-8-8-88-88-8--10-10-10-1010-1010-10--3-3-3-33-33-3-|

         Both Guitars 

E|--------------------------------------------------------------------|
B|--------------------------------------------------------------------|
G|--------------------------------------------------------------------|
D|-8-8-8-88-88-8--10-10-10-1010-1010-10--3-3-3-33-33-3--3-3-3-33-33-3-|
A|-8-8-8-88-88-8--10-10-10-1010-1010-10--3-3-3-33-33-3--3-3-3-33-33-3-|
D|-8-8-8-88-88-8--10-10-10-1010-1010-10--3-3-3-33-33-3--3-3-3-33-33-3-|



E|---------------------------------------------------------------|
B|---------------------------------------------------------------|
G|---------------------------------------------------------------|
D|-8-8-8-88-88-8--10-10-10-1010-1010-10--3-3-3-33-33-3--3-3-3-33-|
A|-8-8-8-88-88-8--10-10-10-1010-1010-10--3-3-3-33-33-3--3-3-3-33-|
D|-8-8-8-88-88-8--10-10-10-1010-1010-10--3-3-3-33-33-3--3-3-3-33-|


well thats it guys i believe that is 100% right please rate and vote thanks
Tap to rate this tab
 
# A B C D E F G H I J K L M N O P Q R S T U V W X Y Z