Song name
# A B C D E F G H I J K L M N O P Q R S T U V W X Y Z

Jimmy Eat World - Sweetness tab

Drop-D Tuning (D A D G B E) 
Intro: 
|-3-3-3-3-3-3-3-3-3-3-3-3- 
|-6-6-6-6-6-6-6-6-6-6-6-6- 
|-5-5-5-5-5-5-5-5-5-5-5-5- 
|-3-3-3-3-3-3-3-3-3-3-3-3- 
|-3-3-3-3-3-3-3-3-3-3-3-3- 
|-3-3-3-3-3-3-3-3-3-3-3-3- 

Verse: 

|-3-3-3-3-3-3-3-3-3-3-3-3-3-3-3-3--------------------------------- 
|-6-6-6-6-6-6-6-6-6-6-6-6-6-6-6-6--------------------------------- 
|-5-5-5-5-5-5-5-5-5-5-5-5-5-5-5-5--------------------------------- 
|-3-3-3-3-3-3-3-3-3-3-3-3-3-3-3-3-0-0-0-0-0-0-0-0-0-0-0-0-0-0-0-0- 
|-3-3-3-3-3-3-3-3-3-3-3-3-3-3-3-3-0-0-0-0-0-0-0-0-0-0-0-0-0-0-0-0- 
|-3-3-3-3-3-3-3-3-3-3-3-3-3-3-3-3-0-0-0-0-0-0-0-0-0-0-0-0-0-0-0-0- 


Chorus: 
  Bb5             C5                      D5 
|------------------------------------------------------------------------- 
|------------------------------------------------------------------------- 
|------------------------------------------------------------------------- 
|-8-8-8-8-8-8-8-8-10-10-10-10-10-10-10-10-0-0-0-0-0-0-0-0-0-0-0-0-0-0-0-0- 
|-8-8-8-8-8-8-8-8-10-10-10-10-10-10-10-10-0-0-0-0-0-0-0-0-0-0-0-0-0-0-0-0- 
|-8-8-8-8-8-8-8-8-10-10-10-10-10-10-10-10-0-0-0-0-0-0-0-0-0-0-0-0-0-0-0-0- 

  Bb5             C                       F5 
|------------------------------------------------------------------------- 
|------------------------------------------------------------------------- 
|------------------------------------------------------------------------- 
|-8-8-8-8-8-8-8-8-10-10-10-10-10-10-10-10-3-3-3-3-3-3-3-3-3-3-3-3-3-3-3-3- 
|-8-8-8-8-8-8-8-8-10-10-10-10-10-10-10-10-3-3-3-3-3-3-3-3-3-3-3-3-3-3-3-3- 
|-8-8-8-8-8-8-8-8-10-10-10-10-10-10-10-10-3-3-3-3-3-3-3-3-3-3-3-3-3-3-3-3- 

Interlude: 
 
  G5              Bb5             F5 
|----------------------------------------------------------------- 
|----------------------------------------------------------------- 
|----------------------------------------------------------------- 
|-5-5-5-5-5-5-5-5-8-8-8-8-8-8-8-8-3-3-3-3-3-3-3-3-3-3-3-3-3-3-3-3- 
|-5-5-5-5-5-5-5-5-8-8-8-8-8-8-8-8-3-3-3-3-3-3-3-3-3-3-3-3-3-3-3-3- 
|-5-5-5-5-5-5-5-5-8-8-8-8-8-8-8-8-3-3-3-3-3-3-3-3-3-3-3-3-3-3-3-3- 



2ndInterlude 
Play Verse twice
Play Chorus once

Outro: 
  Bb5             C                       F5 
|------------------------------------------------------------------------- 
|------------------------------------------------------------------------- 
|------------------------------------------------------------------------- 
|-8-8-8-8-8-8-8-8-10-10-10-10-10-10-10-10-3-3-3-3-3-3-3-3-3-3-3-3-3-3-3-3- 
|-8-8-8-8-8-8-8-8-10-10-10-10-10-10-10-10-3-3-3-3-3-3-3-3-3-3-3-3-3-3-3-3- 
|-8-8-8-8-8-8-8-8-10-10-10-10-10-10-10-10-3-3-3-3-3-3-3-3-3-3-3-3-3-3-3-3- 
  
sorry dudes i could only get one part of the guitars !!! email me if ya think im roughly right and ill do more k 
jeff_hendry@hotmail.com
Tap to rate this tab
# A B C D E F G H I J K L M N O P Q R S T U V W X Y Z