Song name
# A B C D E F G H I J K L M N O P Q R S T U V W X Y Z

Jimmy Eat World - A Praise Chorus tab

-------------------A Praise Chorus - Jimmy Eat World-------------------------
_____________________________________________________________________________

Tabbed by:Kyle Pennington

Tunning: Drop-D Tunning (D A D G B E)

Intro:
Guitar 1

E|-------------------------------------------------------------------------|
B|-------------------------------------------------------------------------|
G|-------------------------------------------------------------------------|
D|-2-2-2-2-2-2-2-2-2-2-2-2-2-2-2-2-2-2-2-2-2-2-2-2-2-2-2-2-2-2-2-2-2-2-2-2-|
A|-0-0-0-0-0-0-0-0-0-0-0-0-0-0-0-0-0-0-0-0-0-0-0-0-0-0-0-0-0-0-0-0-0-0-0-0-|
D|-------------------------------------------------------------------------|

Guitar 2 (comes in half way trough intro)

E|-0--0--0--0--0--0--0--0--0--0--0--0--0--0--0--0--------------------------|
B|-5b-5b-5b-5b-5b-5b-5b-5b-5b-5b-5b-5b-5b-5b-5b-5b-------------------------|
G|-------------------------------------------------------------------------|
D|-------------------------------------------------------------------------|
A|-------------------------------------------------------------------------|
D|-------------------------------------------------------------------------|

Verse:
Guitar 1

E|-------------------------------------------------------------------------|
B|-------------------------------------------------------------------------|
G|-------------------------------------------------------------------------|
D|-7-7-7-7-7-7-7-7-7-7-7-7-7-7-7-7-4-4-4-4-4-4-4-4-4-4-4-4-4-4-4-4---------|
A|-7-7-7-7-7-7-7-7-7-7-7-7-7-7-7-7-4-4-4-4-4-4-4-4-4-4-4-4-4-4-4-4---------|
D|-7-7-7-7-7-7-7-7-7-7-7-7-7-7-7-7-4-4-4-4-4-4-4-4-4-4-4-4-4-4-4-4---------|

Guitar 2

E|-------------------------------------------------------------------------|
B|-------------------------------------------------------------------------|
G|-2-2-2-2-2-2-2-2-2-2-2-2-2-2-2-2-----------------------------------------|
D|-2-2-2-2-2-2-2-2-2-2-2-2-2-2-2-2-2-2-2-2-2-2-2-2-2-2-2-2-2-2-2-2---------|
A|-0-0-0-0-0-0-0-0-0-0-0-0-0-0-0-0-0-0-0-0-0-0-0-0-0-0-0-0-0-0-0-0---------|
D|---------------------------------4-4-4-4-4-4-4-4-4-4-4-4-4-4-4-4---------|

Chorus:
Both Guitars

E|-------------------------------------------------------------------------|
B|-------------------------------------------------------------------------|
G|-------------------------------------------------------------------------|
D|-0-0--0-0-0--0-2-2--2-2-2--2-4-4--4-4-4--4-4-4--4-4-4--------------------|
A|-0-0--0-0-0--0-2-2--2-2-2--2-4-4--4-4-4--4-4-4--4-4-4--------------------|
D|-0-0--0-0-0--0-2-2--2-2-2--2-4-4--4-4-4--4-4-4--4-4-4--------------------|
  |____________________Palm Muted______________________|

E|-------------------------------------------------------------------------|
B|-------------------------------------------------------------------------|
G|-------------------------------------------------------------------------|
D|-0-0--0-0-0--0-2-2--2-2-2--2-4-4--4-4-4--4-4-4--4-4-4--------------------|
A|-0-0--0-0-0--0-2-2--2-2-2--2-4-4--4-4-4--4-4-4--4-4-4--------------------|
D|-0-0--0-0-0--0-2-2--2-2-2--2-4-4--4-4-4--4-4-4--4-4-4--------------------|
  |____________________Palm Muted______________________|

E|-------------------------------------------------------------------------|
B|-------------------------------------------------------------------------|
G|-------------------------------------------------------------------------|
D|-0-0--0-0-0--0-2-2--2-2-2--2-4-4--4-2-2--2-0-0--0-0-0--------------------|
A|-0-0--0-0-0--0-2-2--2-2-2--2-4-4--4-2-2--2-0-0--0-0-0--------------------|
D|-0-0--0-0-0--0-2-2--2-2-2--2-4-4--4-2-2--2-0-0--0-0-0--------------------|
  |____________________Palm Muted______________________|

E|-------------------------------------------------------------------------|
B|-------------------------------------------------------------------------|
G|-------------------------------9-9-9-9-9-9-9-9---------------------------|
D|-0-0-0--0-0-0--0-2-2--2-2-2--2-7-7-7-7-7-7-7-7---------------------------|
A|-0-0-0--0-0-0--0-2-2--2-2-2--2-7-7-7-7-7-7-7-7---------------------------|
D|-0-0-0--0-0-0--0-2-2--2-2-2--2-7-7-7-7-7-7-7-7---------------------------|
  |____________________Palm Muted_______________|

Bridge:
Both Guitars

E|-------------------------------------------------------------------------|
B|-------------------------------------------------------------------------|
G|-------------------------------------------------------------------------|
D|-7-7-7-7-7-7-7-7-2-2-2-2-2-2-2-2-4-4-4-4-4-4-4-4-7-7-7-7-7-7-7-7---------|
A|-7-7-7-7-7-7-7-7-2-2-2-2-2-2-2-2-4-4-4-4-4-4-4-4-7-7-7-7-7-7-7-7---------|
D|-7-7-7-7-7-7-7-7-2-2-2-2-2-2-2-2-4-4-4-4-4-4-4-4-7-7-7-7-7-7-7-7---------|

Last Chorus:
Both Guitars

E|-------------------------------------------------------------------------|
B|-------------------------------------------------------------------------|
G|-------------------------------------------------------------------------|
D|-0-0-0-0-2-2-2-2-4-4-4-4-4-4-4-4-0-0-0-0-2-2-2-2-4-4-4-4-4-4-4-4---------|
A|-0-0-0-0-2-2-2-2-4-4-4-4-4-4-4-4-0-0-0-0-2-2-2-2-4-4-4-4-4-4-4-4---------|
D|-0-0-0-0-2-2-2-2-4-4-4-4-4-4-4-4-0-0-0-0-2-2-2-2-4-4-4-4-4-4-4-4---------|

E|-------------------------------------------------------------------------|
B|-------------------------------------------------------------------------|
G|-------------------------------------------------------------------------|
D|-0-0-0-0-2-2-2-2-4--2--0-0-0-0-0-0-0-0-2-2-2-2-4-4-4-4-4-4-4-4-----------|
A|-0-0-0-0-2-2-2-2-4--2--0-0-0-0-0-0-0-0-2-2-2-2-4-4-4-4-4-4-4-4-----------|
D|-0-0-0-0-2-2-2-2-4--2--0-0-0-0-0-0-0-0-2-2-2-2-4-4-4-4-4-4-4-4-----------|

E|-------------------------------------------------------------------------|
B|-------------------------------------------------------------------------|
G|-------------------------------------------------------------------------|
D|-0-0-0-0-2-2-2-2-4-4-4-4-4-4-4-4-0-0-0-0-2-2-2-2-4--2--0-0-0-0-----------|
A|-0-0-0-0-2-2-2-2-4-4-4-4-4-4-4-4-0-0-0-0-2-2-2-2-4--2--0-0-0-0-----------|
D|-0-0-0-0-2-2-2-2-4-4-4-4-4-4-4-4-0-0-0-0-2-2-2-2-4--2--0-0-0-0-----------|

E|-------------------------------------------------------------------------|
B|-------------------------------------------------------------------------|
G|-------------------------------------------------------------------------|
D|-0-0-0-0-2-2-2-2-7-7-7-7-7-7-7-7-7-7-7-7-7-7-7-7-7-7-7-7-7-7-7-7-7-7-7-7-|
A|-0-0-0-0-2-2-2-2-7-7-7-7-7-7-7-7-7-7-7-7-7-7-7-7-7-7-7-7-7-7-7-7-7-7-7-7-|
D|-0-0-0-0-2-2-2-2-7-7-7-7-7-7-7-7-7-7-7-7-7-7-7-7-7-7-7-7-7-7-7-7-7-7-7-7-|

E|-------------------------------------------------------------------------|
B|-------------------------------------------------------------------------|
G|-------------------------------------------------------------------------|
D|-7-7-7-7-----------------------------------------------------------------|
A|-7-7-7-7-----------------------------------------------------------------|
D|-7-7-7-7-----------------------------------------------------------------|

End With

E|-----|
B|--0--|
G|--2--|
D|--2--|
A|--0--|
D|-----|

intro
verse
chorus
verse
chorus
last chorus
Tap to rate this tab
# A B C D E F G H I J K L M N O P Q R S T U V W X Y Z