Song name
# A B C D E F G H I J K L M N O P Q R S T U V W X Y Z

Jimmy Eat World - My Best Theory tab

Standard Tuning

Intro
Lead
Part A
e-------------------------------------|
b-------------------------------------|
g-------------------------------------|
d-9-9-------------9-9-----------------|
a-----7-7----7--------7-7-------7-7-7-|
e---------10---10---------10-10-------|

Part B (this is also the chorus lead)
e----------------------------------------------------------------------|
b----------------------------------------------------------------------|
g----------------------------------------------------------------------|
d-9-9-------------9-9------------------7-7-----------7-7-7-------------|
a-----7-7----7--------7-7-------7-7--------7-7-5-7-5-------7-5-5-7-7-7-|
e---------10---10---------10-10-----10---------------------------------|

e-----------------|
b-----------------|
g-----------------|
d-9-9-------------|
a-----7-7----7----|
e---------10---10-|

Rhythm
e------------------------------------|
b------------------------------------|
g------------------------------------|
d-22222222-55555555-7777777777777777-|
a-22222222-55555555-7777777777777777-|
e-00000000-33333333-5555555555555555-|

Verse
Rhythm
e------------------------------------|
b------------------------------------|
g------------------------------------|
d-22222222-55555555-7777777777777777-|
a-22222222-55555555-7777777777777777-|
e-00000000-33333333-5555555555555555-|

Lead
e--------------------------------------------------------------|
b-8888888888888888-77777777----------8888888888888888-77777777-|
g---------------------------99999999---------------------------|
d--------------------------------------------------------------|
a--------------------------------------------------------------|
e--------------------------------------------------------------|

Chorus
Lead plays Part B intro
Rhythm plays the intro/verse

Bridge
e---------------------------------------------------------------------|
b---------------------------------------------------------------------|
g-----------------------------------5555555555555555-4444444444444444-|
d-2222222222222222-5555555555555555-5555555555555555-4444444444444444-|
a-2222222222222222-5555555555555555-3333333333333333-2222222222222222-|
e-0000000000000000-3333333333333333-----------------------------------|

e----------------------------------------------------------------------|
b----------------------------------------------------------------------|
g-----------------------------------5555555555555555-44444444/88888888-|
d-2222222222222222-5555555555555555-5555555555555555-44444444/88888888-|
a-2222222222222222-5555555555555555-3333333333333333-22222222/66666666-|
e-0000000000000000-3333333333333333------------------------------------|

Solo
Rhythm
e----------------------------------------------------------------------|
b----------------------------------------------------------------------|
g----------------------------------------------------44444444/88888888-|
d-2222222222222222-5555555555555555-2222222222222222-44444444/88888888-|
a-2222222222222222-5555555555555555-2222222222222222-22222222/66666666-|
e-0000000000000000-3333333333333333-0000000000000000-------------------|

Lead
e----------------------------------------------------|
b----------------------------- t --------------------|
g----------------------- 3x -- h -----------88888888-|
d-9br-9br-------------7------- e --99999999----------|
a---------10-9-7-9-10--------- n --------------------|
e----------------------------------------------------|
Tap to rate this tab
 
# A B C D E F G H I J K L M N O P Q R S T U V W X Y Z