Jimmy Eat World - Evidence tab

-----------------------------------------------------------------------------
		                          Jimmy Eat World - Evidence
-----------------------------------------------------------------------------

Tabbed by: Ruud van der Wal

Tuning: Guitar 1 Drop-D (Electric)
        Guitar 2 Standard (Acoustic)

The acoustic riff has two variations. Sometimes the first part is played 3
times before the second part is played. Listen carefully and you'll figure
out where that happens.

Also, this tab is probably not completely accurate, but it sounds okay.



INTRO & VERSE 1

Guitar 1
e|----------------------------------|---------------------------------------|
B|----------------------------------|---------------------------------------|
G|-7-7-7-7-7-6-6-4-4-4-4-4-4-2-2-2--|--2-2-2-2-2-2-2-2-2-2-2-2-2-2-2-2------|
D|-0-0-0-0-0-0-0-0-0-0-0-0-0-0-0-0--|--0-0-0-0-0-0-0-0-0-0-0-0-0-0-0-0------|
A|----------------------------------|---------------------------------------|
E|----------------------------------|---------------------------------------|
  pm..................................................................



CHORUS

Guitar 1
e|--------------------------------------------------------------------------|
B|--------------------------------------------------------------------------|
G|--------------------------------------------------------------------------|
D|-0-0-0-0-0-0-0-5-5-5-5-5-5-5-5-5------------------------------------------|
A|-0-0-0-0-0-0-0-5-5-5-5-5-5-5-5-5------------------------------------------|
E|-0-0-0-0-0-0-0-5-5-5-5-5-5-5-5-5------------------------------------------|



VERSE 2

Guitar 1
e|-10----10----10----10----10----10----10----12-----------------------------|
B|----10----10----10----10----10----10----10--------------------------------|
G|--------------------------------------------------------------------------|
D|--------------------------------------------------------------------------|
A|--------------------------------------------------------------------------|
E|--------------------------------------------------------------------------|

Guitar 2
e|-2-2-2-2-2-2-2-3-3-3-3-3-3-3-3-3--|--2-2-2-2-2-0-0------------------------|
B|-3-3-3-3-3-3-3-3-3-3-3-3-3-3-3-3--|--3-3-3-3-3-3-3-3-3-3-3-3-3-3-3-3------|
G|-2-2-2-2-2-2-2-2-2-2-2-2-2-2-2-2--|--2-2-2-2-2-2-2-0-0-0-0-0-0-0-0-0------|
D|----------------------------------|----------------0-0-0-0-0-0-0-0-0------|
A|----------------------------------|----------------x-x-x-x-x-x-x-x-x------|
E|----------------------------------|----------------3-3-3-3-3-3-3-3-3------|



CHORUS

Guitar 1
e|--------------------------------------------------------------------------|
B|--------------------------------------------------------------------------|
G|--------------------------------------------------------------------------|
D|-0-0-0-0-0-0-0-5-5-5-5-5-5-5-5-5------------------------------------------|
A|-0-0-0-0-0-0-0-5-5-5-5-5-5-5-5-5------------------------------------------|
E|-0-0-0-0-0-0-0-5-5-5-5-5-5-5-5-5------------------------------------------|

Guitar 2
e|-2-2-2-2-2-2-2-3-3-3-3-3-3-3-3-3--|--2-2-2-2-2-0-0------------------------|
B|-3-3-3-3-3-3-3-3-3-3-3-3-3-3-3-3--|--3-3-3-3-3-3-3-3-3-3-3-3-3-3-3-3------|
G|-2-2-2-2-2-2-2-2-2-2-2-2-2-2-2-2--|--2-2-2-2-2-2-2-0-0-0-0-0-0-0-0-0------|
D|----------------------------------|----------------0-0-0-0-0-0-0-0-0------|
A|----------------------------------|----------------x-x-x-x-x-x-x-x-x------|
E|----------------------------------|----------------3-3-3-3-3-3-3-3-3------|



SOLO

Guitar 1
e|--------------------------------------------------------------------------|
B|--------------------------------------------------------------------------|
G|--------------------------------------------------------------------------|
D|--------------------------------------------------------------------------|
A|-0-4-5-0-4-5-0-2---0-0-0-0-0-0-0-----2-4-5-0-4-5-0------------------------|
E|---------------------------------------------------5---5-5-5-5-5-5-5------|





If you have another guitar to spare, you can tremolo pick this little bit
during the verse and chorus.

Guitar 3
e|-10101010101010101010101010101010-----------------------------------------|
B|--------------------------------------------------------------------------|
G|--------------------------------------------------------------------------|
D|--------------------------------------------------------------------------|
A|--------------------------------------------------------------------------|
E|--------------------------------------------------------------------------|
Tap to rate this tab
 
# A B C D E F G H I J K L M N O P Q R S T U V W X Y Z