Song name
# A B C D E F G H I J K L M N O P Q R S T U V W X Y Z

Jimmy Eat World - Get It Faster tab

Band: Jimmy Eat World
Title: Get It Faster
Album: Bleed American (2001/2002)
Tabbed By: Ian Reid
Tuning: Drop D-Tuning like most Jimmy Eat World songs
This is the whole song, it is accurate and I really hope it helps you out, I have indicated in some places the timing and strumming but however in some cases you’ll have to work it out, also I have included the structure, I leave you with the task of working out how many times to play each part.

Intro/Verse 1
Gtr.1 (palm mute)
e-----------------------------------------------------------------|
B-----------------------------------------------------------------|
G-----------------------------------------------------------------|
D-----------------------------------------------------------------|
A-----------------------------------------------------------------|
D-5-5-5-5-5-5-5-5-8-8-8-8-8-8-8-8-3-3-3-3-3-3-3-3-1-1-1-1-1-1-1-1-|
 p.m_____________________________________________________________|

Gtr.2 (comes in PM after top measure played X2)
e-----------------------------------------------------------------|
B-----------------------------------------------------------------|
G-----------------------------------------------------------------|
D-----------------------------------------------------------------|
A-----------------------------------------------------------------|
D-5-5-5-5-5-5-5-5-8-8-8-8-8-8-8-8-3-3-3-3-3-3-3-3-1-1-1-1-1-1-1-1-|
 p.m_____________________________________________________________|

Chorus 
Gtr.1 (Distortion, all down strumming)
e-----------------------------------------------------------------|
B-----------------------------------------------------------------|
G-----------------------------------------------------------------|
D-5-5-5-5-5-5-5-5-8-8-8-8-8-8-8-8-3-3-3-3-3-3-3-3-1-1-1-1-1-1-1-1-|
A-5-5-5-5-5-5-5-5-8-8-8-8-8-8-8-8-3-3-3-3-3-3-3-3-1-1-1-1-1-1-1-1-|
D-5-5-5-5-5-5-5-5-8-8-8-8-8-8-8-8-3-3-3-3-3-3-3-3-1-1-1-1-1-1-1-1-|

Gtr.2 (Distortion, same amount of strumming as Gtr.1)
e-----------------------------------------------------------------|
B-----------------------------------------------------------------|
G-7----10---5----3--------------------------------------------|
D-5----8-----3----1--------------------------------------------|
A-5—-8-----3----1--------------------------------------------|
D-5----8-----3----1--------------------------------------------|

Interlude/Solo
Gtr.1 (Distortion)
e----------------------------------------------------------------|
B----------------------------------------------------------------|
G----------------------------------------------------------------|
D-5-5--5-5-5-----1-1--1-1-1-----3-3—3--3—0-0—0-|
A-5-5--5-5-5-----1-1--1-1-1-----3-3—3--3—0-0—0-|
D-5-5--5-5-5-----1-1--1-1-1-----3-3---3--3---0-0---0-|

Gtr.2
e---------------------------------------------------------------------------------------------------------------------|
B---------------------------------------------------------------------------------------------------------------------|
G------7-------7----7----7-------3-------3-----3-----3--------5--------5-----5-----5--------2—2—3—0-|
D-5-5----5-5----5----5----1-1-----1-1----1-----1------3-3-----3-3-----3-----3-----0-0-------------------|
A--------------------------------------------------------------------------------------------------------------------|
D--------------------------------------------------------------------------------------------------------------------|

Verse 3 (after interlude/Solo)
Gtr.1  PM X2 with Gtr.2 playing higher notes under it)
e-----------------------------------------------------------------|
B-----------------------------------------------------------------|
G-----------------------------------------------------------------|
D-----------------------------------------------------------------|
A-----------------------------------------------------------------|
D-5-5-5-5-5-5-5-5-8-8-8-8-8-8-8-8-3-3-3-3-3-3-3-3-1-1-1-1-1-1-1-1-|
 p.m_____________________________________________________________|

Gtr.2 (plays this quietly under Gtr.1 measure, play each measure once)
MEASURE 1
e-5-5-5-5-5-5-5-5-6-6-6-6-6-6-6-6-8-8-8-8-8-8-8-8-5-5-5-5-5-5-5-5-|
B-----------------------------------------------------------------|
G-----------------------------------------------------------------|
D-----------------------------------------------------------------|
A-----------------------------------------------------------------|
D-----------------------------------------------------------------|

MEASURE 2
e-6-6-6-6-6-6-6-6-8-8-8-8-8-8-8-8-5-5-5-5-5-5-5-5-6-6-6-6-6-6-6-6-|
B-----------------------------------------------------------------|
G-----------------------------------------------------------------|
D-----------------------------------------------------------------|
A-----------------------------------------------------------------|
D-----------------------------------------------------------------|

Gtr.1, Gtr.2 
(this measure is played last X2 times in Verse, Slightly open PM)
e-----------------------------------------------------------------|
B-----------------------------------------------------------------|
G-----------------------------------------------------------------|
D-5-5-5-5-5-5-5-5-8-8-8-8-8-8-8-8-3-3-3-3-3-3-3-3-1-1-1-1-1-1-1-1-|
A-5-5-5-5-5-5-5-5-8-8-8-8-8-8-8-8-3-3-3-3-3-3-3-3-1-1-1-1-1-1-1-1-|
D-5-5-5-5-5-5-5-5-8-8-8-8-8-8-8-8-3-3-3-3-3-3-3-3-1-1-1-1-1-1-1-1-|

STRUCTURE “GET IT FASTER”:  
1)	Intro/Verse 1
2)	Chorus
3)	Verse 2
4)	Chorus
5)	Interlude/Solo
6)	End Interlude (weird distortion effects) (Play the Verse)
7)	Verse 3 (this verse has a couple moderations to Verses 1, 2 as I’ve indicated)
8)	Chorus






Tap to rate this tab
 
# A B C D E F G H I J K L M N O P Q R S T U V W X Y Z