Song name
# A B C D E F G H I J K L M N O P Q R S T U V W X Y Z

Jimmy Eat World - Action Needs An Audience tab

-------------------------------------------------------------------------------
			     Action Needs An Audience - Jimmy Eat World
-------------------------------------------------------------------------------
Tabbed by:Stiiv

Tuning: Drop D

intro/verse
e|---------------------------------------------------------------------------|
B|---------------------------------------------------------------------------|
G|-----7-------10------------------------------------------------------------|
D|----------------------10---10-8-8-----8-------8-------7---7-5-5------------|
A|-5-5---5-8-8----8----------------------------------------------------------|
D|------------------8-8----8--------5-5---5-8-8---8-0-0---0------------------|

chorus
e|---------------------------------------------------------------------------|
B|---------------------------------------------------------------------------|
G|---------------------------------------------------------------------------|
D|-5555-8888-00000000--------------------------------------------------------|2x
A|-5555-8888-00000000--------------------------------------------------------|
D|-5555-8888-00000000--------------------------------------------------------|

e|---------------------------------------------------------------------------|
B|---------------------------------------------------------------------------|
G|---------------------------------------------------------------------------|
D|-5555-8888-7s0000000-------------------------------------------------------|
A|-5555-8888-7s0000000-------------------------------------------------------|
D|-5555-8888-7s0000000-------------------------------------------------------|

e|---------------------------------------------------------------------------|
B|---------------------------------------------------------------------------|
G|---------------------------------------------------------------------------|
D|-5555-3333-00000000--------------------------------------------------------|
A|-5555-3333-00000000--------------------------------------------------------|
D|-5555-3333-00000000--------------------------------------------------------|


bridge
e|---------------------------------------------------------------------------|
B|---------------------------------------------------------------------------|
G|---------------------------------------------------------------------------|
D|-55555555-88888888-00000000-1010101010101010-------------------------------|3x
A|-55555555-88888888-00000000-1010101010101010-------------------------------|
D|-55555555-88888888-00000000-1010101010101010-------------------------------|

e|---------------------------------------------------------------------------|
B|---------------------------------------------------------------------------|
G|---------------------------------------------------------------------------|
D|-5555555555555555----------------------------------------------------------|
A|-5555555555555555----------------------------------------------------------|
D|-5555555555555555----------------------------------------------------------|



************************************

| /   slide up
| \   slide down
| h   hammer-on
| p   pull-off
| ~   vibrato
| +   harmonic
| x   Mute note
| b   Bend
| pb  Pre-bend
| br  Bend release
| pbr Pre-bend release
| brb Bend release bend

************************************
Tap to rate this tab
# A B C D E F G H I J K L M N O P Q R S T U V W X Y Z