Song name
# A B C D E F G H I J K L M N O P Q R S T U V W X Y Z

Jimmy Eat World - 23 tab

e|--10-9-7----------10-----10---10-10-9-7---------------------------------|
B|---------10-8-7h8----7h8----7-----------10-8-7-8-7----------------------|
G|---------------------------------------------------9-9b10b9-------------|
D|------------------------------------------------------------------------|
A|------------------------------------------------------------------------|
D|------------------------------------------------------------------------|

e|----------17-17----------17-17-15-14-14-17-15-14-14-17-15---------------|
B|-17-19-15-------17-19-15----------------------------------17------------|
G|------------------------------------------------------------------------|
D|------------------------------------------------------------------------|
A|------------------------------------------------------------------------|
D|------------------------------------------------------------------------|

e|-17-15-------------------------------17-------17-------17-------17------|
B|-------17b18b17-15-15-15-15-15-14h15----14h15----14h15----14h15---------|
G|------------------------------------------------------------------------|
D|------------------------------------------------------------------------|
A|------------------------------------------------------------------------|
D|------------------------------------------------------------------------|

e|-------17-15-14-14------------------------------------------------------|
B|-14h15------------------------------------------------------------------|
G|------------------------------------------------------------------------|
D|------------------------------------------------------------------------|
A|------------------------------------------------------------------------|
D|------------------------------------------------------------------------|
Tap to rate this tab
# A B C D E F G H I J K L M N O P Q R S T U V W X Y Z