Song name
# A B C D E F G H I J K L M N O P Q R S T U V W X Y Z

Jimmy Eat World - Movielike tab

-----------------------------------------------------------------------------
		       Jimmy Eat World - Movielike
-----------------------------------------------------------------------------

Tabbed by: Samir Delaroche

Tuning: Guitar 1 Standard (Electric)
        Guitar 2 Standard (Acoustic)



Figure out strumming on your own. It's really simple.



VERSE

Guitar 2
e|--------------------------------------------------------------------------|
B|-1---------------1---------------1---------------1------------------------|
G|-0---------------2---------------0---------------2------------------------|
D|-2---------------3---------------2---------------3------------------------|
A|-3---------------3---------------3---------------3------------------------|
E|--------------------------------------------------------------------------|



CHORUS

First...

Guitar 1
e|----------------------------------|---------------------------------------|
B|----------------------------------|---------------------------------------|
G|----------------------------------|---------------------------------------|
D|-3-3-3-3-5-5-5-5-7-7-7-7-7-7-5-5--|--3-3-3-3-5-5-5-5-7-7-7-7---7---5------|
A|-3-3-3-3-5-5-5-5-7-7-7-7-7-7-5-5--|--3-3-3-3-5-5-5-5-7-7-7-7---7---5------|
E|-1-1-1-1-3-3-3-3-5-5-5-5-5-5-3-3--|--1-1-1-1-3-3-3-3-5-5-5-5---5---3------|

Guitar 2
e|-8---8--8-8--7---8---8--8-8--7----|--8---8--8-8--7---8---8-----8---7------|
B|---8---8---8---8---8---8---8---8--|----8---8---8---8---8---8--------------|
G|----------------------------------|---------------------------------------|
D|----------------------------------|---------------------------------------|
A|----------------------------------|---------------------------------------|
E|----------------------------------|---------------------------------------|



Then...

e|--------------------------------------------------------------------------|
B|---------------------------------------------------------------------1----|
G|---------------------------------------------------------------------0----|
D|-3-3-3-3-3-3-3-3-3-3-3-3-7-7-5-5---3-3-3-3-3-3-3-3-3-3-3-3-7-7-5-5---x----|
A|-3-3-3-3-3-3-3-3-3-3-3-3-7-7-5-5---3-3-3-3-3-3-3-3-3-3-3-3-7-7-5-5---3----|
E|-1-1-1-1-1-1-1-1-1-1-1-1-5-5-3-3---1-1-1-1-1-1-1-1-1-1-1-1-5-5-3-3--------|

Guitar 2
e|-8-7-5---8-7-3---8-7-5---8-7-3-----8-7-5---8-7-3---8-7-5---8-7-3----------|
B|--------------------------------------------------------------------------|
G|--------------------------------------------------------------------------|
D|--------------------------------------------------------------------------|
A|--------------------------------------------------------------------------|
E|--------------------------------------------------------------------------|



VERSE



CHORUS



BRIDGE

Guitar 1
e|--------------------------------------------------------------------------|
B|--------------------------------------------------------------------------|
G|-7---9-7---9-5---5s7---4-5-4-2---4-5-4-2-----5-4-----5-5p4p0--------------|
D|-------------------------------------------5------------------------------|
A|--------------------------------------------------------------------------|
E|--------------------------------------------------------------------------|

e|-8-7-5---8-7-3---8-7-5---8-7-3----|--8-7-3---8-7-3---8-7-3---8-7-3--------|
B|----------------------------------|----------------------------------1----|
G|----------------------------------|----------------------------------0----|
D|----------------------------------|----------------------------------x----|
A|----------------------------------|----------------------------------3----|
E|----------------------------------|---------------------------------------|


Guitar 2
e|-----------------3----------------|------------------3--------------------|
B|-1-------1-------3-------1--------|--1-------1-------3-------1------------|
G|-0-------2-------0-------2--------|--0-------2-------0-------2------------|
D|-2-------2-------0-------3--------|--2-------2-------0-------3------------|
A|-3-------0-------2-------3--------|--3-------0-------2-------3------------|
E|-----------------3----------------|------------------3--------------------|



LAST CHORUS

First...

Guitar 1
e|----------------------------------|---------------------------------------|
B|----------------------------------|---------------------------------------|
G|----------------------------------|---------------------------------------|
D|-3-3-3-3-5-5-5-5-7-7-7-7-7-7-5-5--|--3-3-3-3-5-5-5-5-7-7-7-7---7---5------|
A|-3-3-3-3-5-5-5-5-7-7-7-7-7-7-5-5--|--3-3-3-3-5-5-5-5-7-7-7-7---7---5------|
E|-1-1-1-1-3-3-3-3-5-5-5-5-5-5-3-3--|--1-1-1-1-3-3-3-3-5-5-5-5---5---3------|

Guitar 2
e|-8---8--8-8--7---8---8--8-8--7----|--8---8--8-8--7---8---8-----8---7------|
B|---8---8---8---8---8---8---8---8--|----8---8---8---8---8---8--------------|
G|----------------------------------|---------------------------------------|
D|----------------------------------|---------------------------------------|
A|----------------------------------|---------------------------------------|
E|----------------------------------|---------------------------------------|



Then...

e|----------------------------------|---------------------------------------|
B|----------------------------------|---------------------------------------|
G|----------------------------------|---------------------------------------|
D|-3-3-3-3-3-3-3-3-3-3-3-3-7-7-5-5--|--3-3-3-3-3-3-3-3-3-3-3-3-7---5---3~---|
A|-3-3-3-3-3-3-3-3-3-3-3-3-7-7-5-5--|--3-3-3-3-3-3-3-3-3-3-3-3-7---5---3~---|
E|-1-1-1-1-1-1-1-1-1-1-1-1-5-5-3-3--|--1-1-1-1-1-1-1-1-1-1-1-1-5---3---1~---|

Guitar 2
e|-8-7-5---8-7-3---8-7-5---8-7-3----|--8-7-5---8-7-3---8-7-5---8-7-3--------|
B|----------------------------------|---------------------------------------|
G|----------------------------------|---------------------------------------|
D|----------------------------------|---------------------------------------|
A|----------------------------------|---------------------------------------|
E|----------------------------------|---------------------------------------|
Tap to rate this tab
 
# A B C D E F G H I J K L M N O P Q R S T U V W X Y Z