Song name
# A B C D E F G H I J K L M N O P Q R S T U V W X Y Z

Jimmy Eat World - Hear You Me tab

Standard tuning (E A D G B e)

Guitar 1 - capo on 2nd fret


Intro and verse: guitar 1
e---2-2-2-2-2---2-2-2-2-2---2-2-2-2-2---2-2-2-2-2---0-0-0-0-0---0-0-0-0-0- 
B---3-3-3-3-3---3-3-3-3-3---3-3-3-3-3---3-3-3-3-3---3-3-3-3-3---3-3-3-3-3- 
G---2-2-2-2-2---2-2-2-2-2---2-2-2-2-2---2-2-2-2-2---2-2-2-2-2---2-2-2-2-2- 
D---0-0-0-0-0---0-0-0-0-0---0-0-0-0-0---0-0-0-0-0---2-2-2-2-2---2-2-2-2-2-
A------------------------------------------------------------------------- 
E------------------------------------------------------------------------- 

e---0-0-0-0-0---0-0-0-0-0---0-0-0-0-0---0-0-0-0-0---0-0-0-0-0---0-0-0-0-0- 
B---3-3-3-3-3---3-3-3-3-3---3-3-3-3-3---3-3-3-3-3---3-3-3-3-3---3-3-3-3-3- 
G---2-2-2-2-2---2-2-2-2-2---2-2-2-2-2---2-2-2-2-2---2-2-2-2-2---2-2-2-2-2- 
D---2-2-2-2-2---2-2-2-2-2---0-0-0-0-0---0-0-0-0-0---0-0-0-0-0---0-0-0-0-0- 
A---0-0-0-0-0---0-0-0-0-0---2-2-2-2-2---2-2-2-2-2---2-2-2-2-2---2-2-2-2-2- 
E------------------------------------------------------------------------- 

e---0-0-0-0-0---0-0-0-0-0---0-0-0-0-0---0-0-0-0-0- 
B---3-3-3-3-3---3-3-3-3-3---3-3-3-3-3---3-3-3-3-3- 
G---0-0-0-0-0---0-0-0-0-0---0-0-0-0-0---0-0-0-0-0- 
D---0-0-0-0-0---0-0-0-0-0---0-0-0-0-0---0-0-0-0-0- 
A---2-2-2-2-2---2-2-2-2-2---2-2-2-2-2---2-2-2-2-2- 
E---3-3-3-3-3---3-3-3-3-3---3-3-3-3-3---3-3-3-3-3- 

Chorus: guitar 1
e---2-2-2--0-0-0--0-0-0-0-0-3--2-2-0--0-0-0--0-0-0-0-0-3--2-2-0--0-0-0--0-0-0--0-0-3- 
B---3-3-3--3-3-3--3-3-3-3-3-3--3-3-3--3-3-3--3-3-3-3-3-3--3-3-3--3-3-3--3-3-3--3-3-3- 
G---2-2-2--2-2-2--0-0-0-0-0-0--2-2-2--2-2-2--0-0-0-0-0-0--2-2-2--2-2-2--0-0-0--0-0-0- 
D---0-0-0--2-2-2--0-0-0-0-0-0--0-0-0--2-2-2--0-0-0-0-0-0--0-0-0--2-2-2--2-2-2--0-0-0- 
A----------0-0-0--2-2-2-2-2-2---------0-0-0--2-2-2-2-2-2---------0-0-0--2-2-2--2-2-2- 
E-----------------3-3-3-3-3-3----------------3-3-3-3-3-3----------------0-0-0--3-3-3- 

e---2-2-2--0-0-0--0-0-0-0-0-0- 
B---3-3-3--3-3-3--3-3-3-3-3-3- 
G---2-2-2--2-2-2--0-0-0-0-0-0- 
D---0-0-0--2-2-2--0-0-0-0-0-0- 
A----------0-0-0--2-2-2-2-2-2- 
E-----------------3-3-3-3-3-3- 

Bridge: guitar 1
e---2-2-2-2-2-2-2-2-2-2-2-2--3-3-3-3-3-3--5-5-5-5-5-5--2-2-2-2-2-2-2-2-2--0-0-0-
B---3-3-3-3-3-3-3-3-3-3-3-3--3-3-3-3-3-3--3-3-3-3-3-3--3-3-3-3-3-3-3-3-3--3-3-3- 
G---4-4-4-4-4-4-4-4-4-4-4-4--0-0-0-0-0-0--0-0-0-0-0-0--4-4-4-4-4-4-4-4-4--2-2-2- 
D---4-4-4-4-4-4-4-4-4-4-4-4--0-0-0-0-0-0--0-0-0-0-0-0--4-4-4-4-4-4-4-4-4--2-2-0- 
A---2-2-2-2-2-2-2-2-2-2-2-2--2-2-2-2-2-2--2-2-2-2-2-2--2-2-2-2-2-2-2-2-2--0-0--- 
E----------------------------3-3-3-3-3-3--3-3-3-3-3-3---------------------------

e---3-3-3-3-3-3--5-5-5-5-5-5- 
B---3-3-3-3-3-3--3-3-3-3-3-3- 
g---0-0-0-0-0-0--0-0-0-0-0-0- 
D---0-0-0-0-0-0--0-0-0-0-0-0- 
A---2-2-2-2-2-2--2-2-2-2-2-2- 
E---3-3-3-3-3-3--3-3-3-3-3-3- 

Interlude: guitar 1 (same as intro and verse)

Guitar 2 during interlude:
e----------------------------7---------------------------------------------- 
B-----7-9-10-9---7---7-9-7-9---10-9-----7-9-10-9---7-9---------7-9-10-9----- 
G---9----------9----------------------9----------9-----9-----9----------9-9- 
d--------------------------------------------------------------------------- 
A--------------------------------------------------------------------------- 
E--------------------------------------------------------------------------- 

Guitar solo: guitar 1
e---2-2-2--0-0-0---------------2-2-2--0-0-0---------------2-2-2--0-0-0--0-0-0-------- 
B---3-3-3--3-3-3--3-3-3-3-3-3--3-3-3--3-3-3--3-3-3-3-3-3--3-3-3--3-3-3--3-3-3--3-3-3- 
G---2-2-2--2-2-2--0-0-0-0-0-0--2-2-2--2-2-2--0-0-0-0-0-0--2-2-2--2-2-2--0-0-0--0-0-0- 
D---0-0-0--2-2-2--0-0-0-0-0-0--0-0-0--2-2-2--0-0-0-0-0-0--0-0-0--2-2-2--2-2-2--0-0-0- 
A----------0-0-0--2-2-2-2-2-2---------0-0-0--2-2-2-2-2-2---------0-0-0--2-2-2--2-2-2- 
E-----------------3-3-3-3-3-3----------------3-3-3-3-3-3----------------0-0-0--3-3-3- 

e---2-2-2--0-0-0-------------- 
B---3-3-3--3-3-3--3-3-3-3-3-3- 
G---2-2-2--2-2-2--0-0-0-0-0-0- 
D---0-0-0--2-2-2--0-0-0-0-0-0- 
A----------0-0-0--2-2-2-2-2-2- 
E-----------------3-3-3-3-3-3- 

Guitar 2 during solo:
e---------------------------------------------------------------------- 
B----------------------5----------------------------------------------- 
G-----7-6-7-7----7-6-7-------7-6-7-7----7-6---------7-6-7-7----7---7-7- 
D---0----------0-----------0----------0-----7-7---0--------------5----- 
A------------------------------------------------------------7--------- 
E---------------------------------------------------------------------- 

e------------------------ 
B------------------------ 
G-----7-6-7-7----7-6----- 
D---0----------0-----7-7- 
A------------------------ 
E------------------------


Lyrics + structure


Intro

Verse
there's no one in town I know 
you gave us some place to go 
i never said thank you for that 
i thought I might get one more chance 

what would you think of me now 
so lucky, so strong, so proud? 
i never said thank you for that 
now I'll never have a chance 

Chorus
may angels lead you in 
hear you me my friends 
on sleepless roads the sleepless go 
may angels lead you in 

Interlude (same as intro and vers)

Verse
so what would you think of me now 
so lucky, so strong, so proud? 
i never said thank you for that 
now I'll never have a chance 

Chorus 
may angels lead you in 
hear you me my friends 
on sleepless roads the sleepless go 
may angels lead you in 

Bridge
(may angels lead you in) 
may angels lead you in 
(may angels lead you in) 
may angels lead you in 

Guitar solo 

Verse 
and if you were with me tonight 
i'd sing to you just one more time 
a song for a heart so big 
god wouldn't let it live 

Chorus
Chorus
on sleepless roads the sleepless go 
may angels lead you in 


[jonatanpetrusson@mail.com]
Tap to rate this tab
 
# A B C D E F G H I J K L M N O P Q R S T U V W X Y Z