Song name
# A B C D E F G H I J K L M N O P Q R S T U V W X Y Z

Jimmy Eat World - Coffee And Cigarettes tab

Coffee and Cigarettes (Solo) - Jimmy Eat World
-----------------------------------------------------------------------------

Tabbed by: rob242986
Email:

Tuning: Drop D (e B G D A D)

e|----------------------------------------------------------------------------|
B|-------3--5-6-5-6-----------------------------------------------------------|
G|---3--3--3---------------55---5---55----------------------------------------|
D|--3--3----------------3-----3---3----3--------------------------------------|
A|----------------------------------------------------------------------------|
E|----------------------------------------------------------------------------|

e|---------------------------------------------------------------------------|
B|-------3--5-6-5-6----------------------------------------------------------|
G|---3--3--3-----------------------------------------------------------------|
D|--3--3----------------2-3-23-5-7-5-3-3-------------------------------------|
A|---------------------------------------------------------------------------|
E|---------------------------------------------------------------------------|

e|--8-------8-10-8-----------------------------------------------------------|
B|----66--6--------6----6-10-11-10-11-10---8-6-8-6-8-6-5-3-1-----------------|
G|---------------------------------------------------------------------------|
D|---------------------------------------------------------------------------|
A|---------------------------------------------------------------------------|
E|---------------------------------------------------------------------------|

e|-----------12-13-15-12---13-12-13-12-13-12-13-12-13------------------------|
B|--3-5-6-8------------------------------------------------------------------|
G|---------------------------------------------------------------------------|
D|---------------------------------------------------------------------------|
A|---------------------------------------------------------------------------|
E|---------------------------------------------------------------------------|

Quick tab of the solo for this song. Listen to the song for timing at certain parts.
Tap to rate this tab
# A B C D E F G H I J K L M N O P Q R S T U V W X Y Z