Song name
# A B C D E F G H I J K L M N O P Q R S T U V W X Y Z

Jimmy Eat World - Goodbye Sky Harbor tab

I found another tab for the end part, but the second guitar was wrong.  it should go like this:

Guitar I:
e|----5-4-5---5---5---
B|----------5---3---2-
G|--------------------
D|--------------------
A|--------------------
E|--------------------
(this is off the other tab...it's right)

Guitar II:
e|--------------------
B|--10----------------
G|-----9-9/7-7/6-6----
D|--------------------
A|--------------------
E|--------------------
Tap to rate this tab
# A B C D E F G H I J K L M N O P Q R S T U V W X Y Z