Song name
# A B C D E F G H I J K L M N O P Q R S T U V W X Y Z

Jimmy Eat World - Salt Sweat Sugar tab

e--------------------------------------------------------|
B------------7-7-------------------------7-7-9-9---------|
G--4-6-6-6-4-----8-8-6-6-8---4-4-6-6-4-4---------8-8-6---|
D--------------------------------------------------------|
A--------------------------------------------------------|
E--------------------------------------------------------|

e--------------------------------------------------------|
B------------7-7-----------------------------------------|
G--4-6-6-6-4-----8-8-6-6-8----4-4-6-4---6-6-6-8-1010-8-6-|
D---------------------------------------x-x-x-x-x-x--x-x-|
A---------------------------------------4-4-4-6-8-8--6-4-|
E--------------------------------------------------------|

e--------------------------------------------------------|
B------------7-7-------------------------7-7-9-9---------|
G--4-6-6-6-4-----8-8-6-6-8---4-4-6-6-4-4---------8-8-6---|
D--------------------------------------------------------|
A--------------------------------------------------------|
E--------------------------------------------------------|

e--------------------------------------------------------|
B------------7-7-----------------------------------------|
G--4-6-6-6-4-----8-8-6-6-8----4-4-6-4---6-6--6-6--6------|
D---------------------------------------6-6--6-6--6------|
A---------------------------------------4-4--4-4--4------|
E--------------------------------------------------------|

I love this song!, pity I can only be assed to try to tab the solo, plz comment.
Tap to rate this tab
 
# A B C D E F G H I J K L M N O P Q R S T U V W X Y Z