Song name
# A B C D E F G H I J K L M N O P Q R S T U V W X Y Z

Jimmy Eat World - The Middle Acoustic tab

ARTIST: JIMMY EAT WORLD

SONG: THE MIDDLE (ACCOUSTIC VERSION)



Drop D Tuning: D A D G B e


INTRO - ALL PALM MUTE

e|-----------------------------------------------------|
B|-----------------------------------------------------|
G|-----------------------------------------------------|
D|-4-4-0-0-0-0-0-0-0-0-0-4-4-4-4-4---------------------|
A|-0-0-0-0-0-0-0-0-0-0-0-0-0-0-0-0-7-7-4-4-4-4-4-4-4-4-|
D|-0-0-0-0-0-0-0-0-0-0-0-0-0-0-0-0-7-7-7-7-7-7-7-7-7-7-|

e|-------------------------------------------------|
B|-------------------------------------------------|
G|-------------------------------------------------|
D|---------------------------------0-0-0-0-0-0-0-0-|
A|-5-5-5-5-5-5-5-5-5-5-5-4-4-4-4-4-0-0-0-0-0-0-0-0-|
D|-5-5-5-5-5-5-5-5-5-5-5-5-5-5-5-5-0-0-0-0-0-0-0-0-|


VERSE - PALM MUTE

e|--------------------------------------------------------------------|
B|--------------------------------------------------------------------|
G|-7-7-7-7-7-7-7-7----------------------------------------------------|
D|-7-7-7-7-7-7-7-7--7-7-7-7-7-7-7-7--5-5-5-5-5-5-5-5--0-0-0-0-0-0-0-0-|
A|-5-5-5-5-5-5-5-5--7-7-7-7-7-7-7-7--5-5-5-5-5-5-5-5--0-0-0-0-0-0-0-0-|
D|-0-5-5-5-5-5-5-5--7-7-7-7-7-7-7-7--5-5-5-5-5-5-5-5--0-0-0-0-0-0-0-0-|X2


CHORUS

     D        A        G        D

e|---2--------0--------X--------2-----|
B|---3--------2--------3--------3-----|
G|---2--------2--------0--------2-----|
D|---0--------2--------0--------0-----|
A|---0--------0--------5--------0-----|
D|---0-----------------5--------0-----|


VERSE

CHORUS X2
Tap to rate this tab
# A B C D E F G H I J K L M N O P Q R S T U V W X Y Z