Song name
# A B C D E F G H I J K L M N O P Q R S T U V W X Y Z

Jimmy Eat World - Ramina tab

-------------------------------------------------------------------------
			     Ramina - Jimmy Eat World
				From "Singles"
-------------------------------------------------------------------------

By:Jimmy Eat World

Inro:
Rhythm guitar 1
*downstroke
e|--------------------------------------------------------------------
B|--------------------------------------------------------------------
G|--------------------------------------------------------------------
D|--99--977-55-55555-555-22-24455-55555-55555-5555/99-----------------
A|--77--755-33-33333-333-00-02233-33333-33333-3333/77-----------------
E|--------------------------------------------------------------------
repeat throughout song

after two iterations of this intro, another guitar comes in played with 

heavy distortion (0:19)...

then the lead comes in (0:35)...

e|--------------------------------------------------------------------
B|--------------------------------------------------------------------
G|97676764-46764-467-7-467-7-467-7 467/9------------------------------
D|------------------5-----5-----5-------------------------------------
A|--------------------------------------------------------------------
E|--------------------------------------------------------------------

then (0:51)...
*combine down and upstrokes here
e|--------------------------------------------------------------------
B|--------------------------------------------------------------------
G|-9999---11-11-11-11--7777---12-12-12-12-----------------------------
D|-xxxx---x-x-x-x------xxxx---x--x--x--x------------------------------
A|-7777---9-9-9-9------5555---10-10-10-10-----------------------------
E|--------------------------------------------------------------------

this song has some pretty awesome effects...good luck reproducing them, it
will make the song sound better though!!

if you have any feedback, contact me here x46765@usma.edu

 -SANCHO
Tap to rate this tab
# A B C D E F G H I J K L M N O P Q R S T U V W X Y Z