Song name
# A B C D E F G H I J K L M N O P Q R S T U V W X Y Z

Jimmy Eat World - Let It Happen tab

I saw the version 1 for this song was correct at most parts but hard to transpose onto 
guitar, and hard to read. So I decided to retab it, fixings his errors and making it a 
lot easier to read. If you have any corrections please Email me them or comment.

Song: Let It Happen
Album: Chase The Light
Band: Jimmy Eat World
Tabber: Callum Philpott (callumphilpott@hotmail.co.uk)
Tuning: Drop D + Capo on 1st fret
Credit goes to Calum Neil for originally tabbing this version.


Intro Guitar 1:  x2
e|-------------------------------------------|
B|-------------------------------------------|
G|-----3----3----3----3----3----3----3----3--|
D|-----3----3----3----3----3----3----3----3--|
A|-----1----1----1----1----1----1----1----1--|
D|--5-5--5-5--3-3--3-3--1-1--1-1--5-5--5-5---|

Intro Guitar 2: x1
e|--1--1--1--1-1-1--1----1-1---1-1-1----------|
B|--11-11-11-10-6-8-6b---3-3b--3h4-3---1-1~---|
G|-------------------------------------2-2h3--|
D|--------------------------------------------|
A|--------------------------------------------|
D|--------------------------------------------|



Verse 1 Guitar 1: x4
e|------------------------------------------------------------------------------|
B|------------------------------------------------------------------------------|
G|--7-7-7-7-7-7-7-7--5-5-5-5-5-5-5-5--3-3-3-3-3-3-3-3--10-10-10-10-10-10-10-10--|
D|--5-5-5-5-5-5-5-5--3-3-3-3-3-3-3-3--1-1-1-1-1-1-1-1--8--8--8--8--8--8--8--8---|
A|--5-5-5-5-5-5-5-5--3-3-3-3-3-3-3-3--1-1-1-1-1-1-1-1--8--8--8--8--8--8--8--8---|
D|--5-5-5-5-5-5-5-5--3-3-3-3-3-3-3-3--1-1-1-1-1-1-1-1--8--8--8--8--8--8--8--8---|
    . . . . . . . .  . . . . . . . .  . . . . . . . .  .  .  .  .  .  .  .  .

Verse 1 Guitar 2: x1
e|--1--1--1--1-1-1---|
B|--11-11-11-10-6-8--|
G|-------------------|
D|-------------------|
A|-------------------|
D|-------------------|

e|------------------------------------|
B|----11--11--11--11--11--11--11--11--|
G|--12--12--10--10---8---8---7---7----|
D|------------------------------------|
A|------------------------------------|
D|------------------------------------|

e|------------------------------------|
B|----11--11--11--11--11--11--11--11--|
G|--12--12--10--10--14--14--15--15----|
D|------------------------------------|
A|------------------------------------|
D|------------------------------------|



Chorus 1 Guitar 1: x2
e|------------------------------------------------------------------------------|
B|------------------------------------------------------------------------------|
G|--7-7-7-7-7-7-7-7--5-5-5-5-5-5-5-5--3-3-3-3-3-3-3-3--10-10-10-10-10-10-10-10--|
D|--5-5-5-5-5-5-5-5--3-3-3-3-3-3-3-3--1-1-1-1-1-1-1-1--8--8--8--8--8--8--8--8---|
A|--5-5-5-5-5-5-5-5--3-3-3-3-3-3-3-3--1-1-1-1-1-1-1-1--8--8--8--8--8--8--8--8---|
D|--5-5-5-5-5-5-5-5--3-3-3-3-3-3-3-3--1-1-1-1-1-1-1-1--8--8--8--8--8--8--8--8---|

Chorus 1 Guitar 2:
e|--6-6-6-6-6-6-6-6--6-6-6-6-6-6-6-6--6-6-6-6-6-6-6-6--6-6-6-6-6-6-6-6--|
B|--x-x-x-x-x-x-x-x--x-x-x-x-x-x-x-x--x-x-x-x-x-x-x-x--x-x-x-x-x-x-x-x--|
G|--3-3-3-3-3-3-3-3--3-3-3-3-3-3-3-3--3-3-3-3-3-3-3-3--3-3-3-3-3-3-3-3--|
D|--5-5-5-5-5-5-5-5--3-3-3-3-3-3-3-3--1-1-1-1-1-1-1-1--1-1-1-1-1-1-1-1--|
A|----------------------------------------------------------------------|
D|----------------------------------------------------------------------|



Post-Chorus 1 Guitar 1: x2
e|------------------------------------------------------------------------------|
B|------------------------------------------------------------------------------|
G|--7-7-7-7-7-7-7-7--5-5-5-5-5-5-5-5--3-3-3-3-3-3-3-3--10-10-10-10-10-10-10-10--|
D|--5-5-5-5-5-5-5-5--3-3-3-3-3-3-3-3--1-1-1-1-1-1-1-1--8--8--8--8--8--8--8--8---|
A|--5-5-5-5-5-5-5-5--3-3-3-3-3-3-3-3--1-1-1-1-1-1-1-1--8--8--8--8--8--8--8--8---|
D|--5-5-5-5-5-5-5-5--3-3-3-3-3-3-3-3--1-1-1-1-1-1-1-1--8--8--8--8--8--8--8--8---|
    . . . . . . . .  . . . . . . . .  . . . . . . . .  .  .  .  .  .  .  .  .

Post-Chorus 1 Guitar 2: x1
e|--------------------|
b|----6---6---6---6---|
g|---3-3-3-3-3-3-3-3--|
d|--5---3---1---------|
a|--------------5-----|
d|--------------------|



Verse 2 Guitar 1: x4
e|------------------------------------------------------------------------------|
B|------------------------------------------------------------------------------|
G|--7-7-7-7-7-7-7-7--5-5-5-5-5-5-5-5--3-3-3-3-3-3-3-3--10-10-10-10-10-10-10-10--|
D|--5-5-5-5-5-5-5-5--3-3-3-3-3-3-3-3--1-1-1-1-1-1-1-1--8--8--8--8--8--8--8--8---|
A|--5-5-5-5-5-5-5-5--3-3-3-3-3-3-3-3--1-1-1-1-1-1-1-1--8--8--8--8--8--8--8--8---|
D|--5-5-5-5-5-5-5-5--3-3-3-3-3-3-3-3--1-1-1-1-1-1-1-1--8--8--8--8--8--8--8--8---|
    . . . . . . . .  . . . . . . . .  . . . . . . . .  .  .  .  .  .  .  .  .

Verse 2 Guitar 2: x1
e|--1--1--1--1-1-1---|
B|--11-11-11-10-6-8--|
G|-------------------|
D|-------------------|
A|-------------------|
D|-------------------|

e|------------------------------------|
B|----11--11--11--11--11--11--11--11--|
G|--12--12--10--10---8---8---7---7----|
D|------------------------------------|
A|------------------------------------|
D|------------------------------------|

e|------------------------------------|
B|----11--11--11--11--11--11--11--11--|
G|--12--12--10--10--14--14--15--15----|
D|------------------------------------|
A|------------------------------------|
D|------------------------------------|



Pre-Chorus Guitar 1: x1
e|----------------------------------------------------------------------|
B|----------------------------------------------------------------------|
G|----------------------------------------------------------------------|
D|--8-8-8-8-8-8-8-8--8-8-8-8-8-8-8-8--8-8-8-8-8-8-8-8--8-8-8-8-8-8-8-8--|
A|--1-1-1-1-1-1-1-1--1-1-1-1-1-1-1-1--1-1-1-1-1-1-1-1--1-1-1-1-1-1-1-1--|
D|--5-5-5-5-5-5-5-5--7-7-7-7-7-7-7-7--8-8-8-8-8-8-8-8--8-8-1-1-1-1-1-1--|

Pre-Chorus Guitar 2: x1
e|--------------------------------------------------------------------|
B|--------------------------------------------------------------------|
G|------------------------------------8-8-8-8-8-8-8-8--5-5-x-7-x-5-3--|
D|--8-8-8-8-8-8-8-8--7-7-7-7-7-7-7-7--x-x-x-x-x-x-x-x--x-x-x-x-x-x-x--|
A|--x-x-x-x-x-x-x-x--x-x-x-x-x-x-x-x--6-6-6-6-6-6-6-6--3-3-x-5-x-3-1--|
D|--8-8-8-8-8-8-8-8--7-7-7-7-7-7-7-7----------------------------------|



Chorus 2 Guitar 1: x4
e|------------------------------------------------------------------------------|
B|------------------------------------------------------------------------------|
G|--7-7-7-7-7-7-7-7--5-5-5-5-5-5-5-5--3-3-3-3-3-3-3-3--10-10-10-10-10-10-10-10--|
D|--5-5-5-5-5-5-5-5--3-3-3-3-3-3-3-3--1-1-1-1-1-1-1-1--8--8--8--8--8--8--8--8---|
A|--5-5-5-5-5-5-5-5--3-3-3-3-3-3-3-3--1-1-1-1-1-1-1-1--8--8--8--8--8--8--8--8---|
D|--5-5-5-5-5-5-5-5--3-3-3-3-3-3-3-3--1-1-1-1-1-1-1-1--8--8--8--8--8--8--8--8---|

Chorus 2 Guitar 2:
e|--6-6-6-6-6-6-6-6--6-6-6-6-6-6-6-6--6-6-6-6-6-6-6-6--6-6-6-6-6-6-6-6--|
B|--x-x-x-x-x-x-x-x--x-x-x-x-x-x-x-x--x-x-x-x-x-x-x-x--x-x-x-x-x-x-x-x--|
G|--3-3-3-3-3-3-3-3--3-3-3-3-3-3-3-3--3-3-3-3-3-3-3-3--3-3-3-3-3-3-3-3--|
D|--5-5-5-5-5-5-5-5--3-3-3-3-3-3-3-3--1-1-1-1-1-1-1-1--1-1-1-1-1-1-1-1--|
A|----------------------------------------------------------------------|
D|----------------------------------------------------------------------|



Post-Chorus 2 Guitar 1: x1
e|------------------------------------------------------------------------------|
B|------------------------------------------------------------------------------|
G|--7-7-7-7-7-7-7-7--5-5-5-5-5-5-5-5--3-3-3-3-3-3-3-3--10-10-10-10-10-10-10-10--|
D|--5-5-5-5-5-5-5-5--3-3-3-3-3-3-3-3--1-1-1-1-1-1-1-1--8--8--8--8--8--8--8--8---|
A|--5-5-5-5-5-5-5-5--3-3-3-3-3-3-3-3--1-1-1-1-1-1-1-1--8--8--8--8--8--8--8--8---|
D|--5-5-5-5-5-5-5-5--3-3-3-3-3-3-3-3--1-1-1-1-1-1-1-1--8--8--8--8--8--8--8--8---|
    . . . . . . . .  . . . . . . . .  . . . . . . . .  .  .  .  .  .  .  .  .

e|---------------------------------------------------------------------------|
B|-----------------------------------------------------13----13----13----13--|
G|--7-7-7-7-7-7-7-7--5-5-5-5-5-5-5-5--3-3-3-3-3-3-3-3--x-----x-----x-----x---|
D|--5-5-5-5-5-5-5-5--3-3-3-3-3-3-3-3--1-1-1-1-1-1-1-1--10----10----10----10--|
A|--5-5-5-5-5-5-5-5--3-3-3-3-3-3-3-3--1-1-1-1-1-1-1-1------------------------|
D|--5-5-5-5-5-5-5-5--3-3-3-3-3-3-3-3--1-1-1-1-1-1-1-1------------------------|
    . . . . . . . .  . . . . . . . .  . . . . . . . .

Post-Chorus 2 Guitar 2: x1
e|------------------------------------|
B|----11--11--11--11--11--11--11--11--|
G|--12--12--10--10---8---8---7---7----|
D|------------------------------------|
A|------------------------------------|
D|------------------------------------|

e|------------------------------------|
B|----11--11--11--11--11--11--11--11--|
G|--12--12--10--10--14--14--15--15----|
D|------------------------------------|
A|------------------------------------|
D|------------------------------------|



Bridge Guitar 1: Part 1: x3
e|------------------------------------------------------------------------------|
B|------------------------------------------------------------------------------|
G|--7-7-7-7-7-7-7-7--5-5-5-5-5-5-5-5--3-3-3-3-3-3-3-3--10-10-10-10-10-10-10-10--|
D|--5-5-5-5-5-5-5-5--3-3-3-3-3-3-3-3--1-1-1-1-1-1-1-1--8--8--8--8--8--8--8--8---|
A|--5-5-5-5-5-5-5-5--3-3-3-3-3-3-3-3--1-1-1-1-1-1-1-1--8--8--8--8--8--8--8--8---|
D|--5-5-5-5-5-5-5-5--3-3-3-3-3-3-3-3--1-1-1-1-1-1-1-1--8--8--8--8--8--8--8--8---|

Bridge Guitar 1: Part 2: x1
e|------------------------------------------------------------------------------|
B|------------------------------------------------------------------------------|
G|--7-7-7-7-7-7-7-7--5-5-5-5-5-5-5-5--3-3-3-3-3-3-3-3--10-----------------------|
D|--5-5-5-5-5-5-5-5--3-3-3-3-3-3-3-3--1-1-1-1-1-1-1-1--8------------------------|
A|--5-5-5-5-5-5-5-5--3-3-3-3-3-3-3-3--1-1-1-1-1-1-1-1--8------------------------|
D|--5-5-5-5-5-5-5-5--3-3-3-3-3-3-3-3--1-1-1-1-1-1-1-1--8------------------------|

Bridge Guitar 2: x1
e|-----------------------------------------------------|
B|----------------------------------------11-11-11-11--|
G|--12-12-12-12-12-12-12-12--14-14-14-14--x--x--x--x---|
D|--x--x--x--x--x--x--x--x---x--x--x--x---8--8--8--8---|
A|--10-10-10-10-10-10-10-10--12-12-12-12---------------|
D|-----------------------------------------------------|

e|--------------------------------------------|
B|--------------------------------------------|
G|--10-10-10-10-10-10-10-10--7-7-x-5-x-5-3-3--|
D|--x--x--x--x--x--x--x--x---x-x-x-x-x-x-x-x--|
A|--8--8--8--8--8--8--8--8---5-5-x-3-x-3-1-1--|
D|--------------------------------------------|

e|-----------------------------------------------------|
B|----------------------------------------11-11-11-11--|
G|--12-12-12-12-12-12-12-12--14-14-14-14--x--x--x--x---|
D|--x--x--x--x--x--x--x--x---x--x--x--x---8--8--8--8---|
A|--10-10-10-10-10-10-10-10--12-12-12-12---------------|
D|-----------------------------------------------------|

e|-----------------------------------------------11-11--|
B|---------------------------11-11-11-11--13-13--x--x---|
G|--10-10-10-10-10-10-10-10--x--x--x--x---x--x---8--8---|
D|--x--x--x--x--x--x--x--x---8--8--8--8---8--8----------|
A|--8--8--8--8--8--8--8--8------------------------------|
D|------------------------------------------------------|

e|----------------------------------------------------|
B|--11-11-11-11-11-11-11-11--10-10-10-10-10-10-10-10--|
G|--x--x--x--x--x--x--x--x---x--x--x--x--x--x--x--x---|
D|--8--8--8--8--8--8--8--8---7--7--7--7--7--7--7--7---|
A|----------------------------------------------------|
D|----------------------------------------------------|

e|---------------------------13--------13-------|
B|--11-11-11-11-11-11-11-11--x----11---x----11--|
G|--x--x--x--x--x--x--x--x---10---x----10---x---|
D|--8--8--8--8--8--8--8--8--------8---------8---|
A|----------------------------------------------|
D|----------------------------------------------|

e|----------------------------------------------------|
B|--11-11-11-11-11-11-11-11--10-10-10-10-10-10-10-10--|
G|--x--x--x--x--x--x--x--x---x--x--x--x--x--x--x--x---|
D|--8--8--8--8--8--8--8--8---7--7--7--7--7--7--7--7---|
A|----------------------------------------------------|
D|----------------------------------------------------|

e|-------------------------------------------------|
B|--11-11-11-11-11-11-11-11--x-15-x-13-13-x-11-11--|
G|--x--x--x--x--x--x--x--x---x-x--x-x--x--x-x--x---|
D|--8--8--8--8--8--8--8--8---x-12-x-10-10-x-8--8---|
A|-------------------------------------------------|
D|-------------------------------------------------|



Chorus 3 Guitar 1: x4
e|------------------------------------------------------------------------------|
B|------------------------------------------------------------------------------|
G|--7-7-7-7-7-7-7-7--5-5-5-5-5-5-5-5--3-3-3-3-3-3-3-3--10-10-10-10-10-10-10-10--|
D|--5-5-5-5-5-5-5-5--3-3-3-3-3-3-3-3--1-1-1-1-1-1-1-1--8--8--8--8--8--8--8--8---|
A|--5-5-5-5-5-5-5-5--3-3-3-3-3-3-3-3--1-1-1-1-1-1-1-1--8--8--8--8--8--8--8--8---|
D|--5-5-5-5-5-5-5-5--3-3-3-3-3-3-3-3--1-1-1-1-1-1-1-1--8--8--8--8--8--8--8--8---|
Chorus 3 Guitar 2: x2
e|----------------------------------------------------|
B|--11-11-11-11-11-11-11-11--10-10-10-10-10-10-10-10--|
G|--x--x--x--x--x--x--x--x---x--x--x--x--x--x--x--x---|
D|--8--8--8--8--8--8--8--8---7--7--7--7--7--7--7--7---|
A|----------------------------------------------------|
D|----------------------------------------------------|

e|----------------------------------------------------|
B|--11-11-11-11-11-11-11-11--13-13-13-13-13-13-13-13--|
G|--x--x--x--x--x--x--x--x---x--x--x--x--x--x--x--x---|
D|--8--8--8--8--8--8--8--8---10-10-10-10-10-10-10-10--|
A|----------------------------------------------------|
D|----------------------------------------------------|

e|----------------------------------------------------|
B|--11-11-11-11-11-11-11-11--10-10-10-10-10-10-10-10--|
G|--x--x--x--x--x--x--x--x---x--x--x--x--x--x--x--x---|
D|--8--8--8--8--8--8--8--8---7--7--7--7--7--7--7--7---|
A|----------------------------------------------------|
D|----------------------------------------------------|

e|----------------------------------------------------|
B|--11-11-11-11-11-11-11-11--13-13-13-13-15-15-11-11--|
G|--x--x--x--x--x--x--x--x---x--x--x--x--x--x--x--x---|
D|--8--8--8--8--8--8--8--8---10-10-10-10-12-12-8--8---|
A|----------------------------------------------------|
D|----------------------------------------------------|



Outro Guitar 1: x10 (until fade out)
e|--------------------|
B|----6---6---6---6---|
G|---3-3-3-3-3-3-3-3--|
D|--5---3---0---------|
A|--------------5-----|
D|--------------------|

Outro Guitar 2: x5 (until fade out)
e|------------------------------------|
B|----11--11--11--11--11--11--11--11--|
G|--12--12--10--10---8---8---7---7----|
D|------------------------------------|
A|------------------------------------|
D|------------------------------------|

e|------------------------------------|
B|----11--11--11--11--11--11--11--11--|
G|--12--12--10--10--14--14--15--15----|
D|------------------------------------|
A|------------------------------------|
D|------------------------------------|


Lyrics

I have a ringing in my head
And no one to help me answer it
Even with you close enough to kiss.

Every minute is arranged
Every moment lasts a day
But thinking about it can't help me let go, I know.

Talk, talking a lot, but it's still talk
Gotta love how it's somehow all on me
All the petty scenes
And all the pretty things
Say whatever you want
'Cause I can laugh it off.
I can laugh it off.

I must look like I'm running away
To you at your faster pace
I wonder what it is you could have seen, in me.

I'm the evil one who said.
Gonna let everything just happen
Just like my chest, my ears are proud
The collision is such an ugly sound.

I can hear you now
Talk, talking a lot, but it's still talk
Gotta love how it's somehow all on me
All the petty scenes
And all the pretty things
Say whatever you want
'Cause I can laugh it off.
Talk, talking a lot, but it's still talk
Gotta love how it's somehow all on me
And all the placings
And all the pretty things
Say whatever you want
'Cause I can laugh it off.
I can laugh it off.

I can hear you now
Talk, talking a lot, but it's still talk
Gotta love how it's somehow all on me
All the petty scenes
And all the pretty things
Say whatever you want
'Cause I can laugh it off.

Talk, talking a lot, but it's still talk
Gotta love how it's somehow all on me
All the petty scenes
And all the pretty things
Say whatever you want
'Cause I can laugh it off.
Tap to rate this tab
# A B C D E F G H I J K L M N O P Q R S T U V W X Y Z