Song name
# A B C D E F G H I J K L M N O P Q R S T U V W X Y Z

Jimmy Eat World - Your New Aesthetic Acoustic tab

from nerdrocker:
I believe this is the correct intro.  If not it sounds better and is
easier to play than the other ones.
Listen to it to get timing.

Intro (I suggest you finger pick)

e|-------------------------------------------------------
B|-------------------------------------------------------
G|--6-----------4----------3-------4---------------------
D|-------------------------------------------------------
A|-------------------------------------------------------
E|--7-----------0----------4-------0---------------------

e|-------------------------------------------------------
B|-------------------------------------------------------
G|--6------8----4-----4----3---3---4---------------------
D|-------------------------------------------------------
A|-------------------------------------------------------
E|--7----7------0-------0--4--4----0---------------------

e|-------------------------------------------------------
B|-------------------------------------------------------
G|--6-----------4----------3-------4---------------------
D|-------------------------------------------------------
A|-------------------------------------------------------
E|--7-----------0----------4-------0---------------------

e|-------------------------------------------------------
B|-------------------------------------------------------
G|--6------8----4-----4----3-------4---------------------
D|-------------------------------------------------------
A|-------------------------------------------------------
E|--7----7------0-------0--4-------0---------------------

Verse 1
e|-------------------------------------------------------
B|-------------------------------------------------------
G|--6-----------4----------3-------4---------------------
D|-------------------------------------------------------
A|-------------------------------------------------------
E|--7-----------0----------4-------0---------------------

e|-------------------------------------------------------
B|-------------------------------------------------------
G|--6------8----4-----4----3---3---4---------------------
D|-------------------------------------------------------
A|-------------------------------------------------------
E|--7----7------0-------0--4--4----0---------------------

During Chorus Strum BBB EEEEE G#G#G# EEEEE
Verse
Chrous
During Break Strum G#G#G# EEEEE BBB EEEEE
Chorus
Guitar #2 does some stuff during the G#G#G# EEEEE
(notes are D# D# D# E D# C# D#) You'll have to figure out how it's done.
    B Chord      E Chord     G# Chord
e|--------------------------------------
B|--------------------------------------
G|--4-----------------------------------
D|--4------------2-----------6----------
A|--2------------2-----------6----------
E|---------------0-----------4----------
Tap to rate this tab
 
# A B C D E F G H I J K L M N O P Q R S T U V W X Y Z