Song name
# A B C D E F G H I J K L M N O P Q R S T U V W X Y Z

Jimmy Eat World - My Sundown tab

Artist: Jimmy Eat World
Song: My Sundown
Album: Bleed American (2001)
Tabbed by: MhStrat
Tuning: Drop D (DADGBe)


Verse / Main Riff:
e|-----------------------------------------------------------------------|
B|-----------------------------------------------------------------------|
G|-----------------------------------------------------------------------|
D|---1-1-1-1-1-1-1-1--8-8-8-8-8-8-8-8--6-6-6-6-6-6-6-6-6-6-6-6-6-6-6-6---|
A|---1-1-1-1-1-1-1-1--8-8-8-8-8-8-8-8--6-6-6-6-6-6-6-6-6-6-6-6-6-6-6-6---|
D|---1-1-1-1-1-1-1-1--8-8-8-8-8-8-8-8--6-6-6-6-6-6-6-6-6-6-6-6-6-6-6-6---|


Verse 2nd guitar (this starts when Jim first stops singing):
e|-----------------------------------------------------------------------|
B|-----------------------------------------------------------------------|
G|-----------------------------------------------------------------------|
D|---3-3-3-3-3-3------3-3-3-3-3-3------8-8-8-8-8-8------8-8-8-8-8-8------|
A|---1-1-1-1-1-1------1-1-1-1-1-1------8-8-8-8-8-8------8-8-8-8-8-8------|
D|---1-1-1-1-1-1------1-1-1-1-1-1------8-8-8-8-8-8------8-8-8-8-8-8------|


Chorus (same rhythm guitar while 2nd guitar this plays this little lead):
e|--------------6----------------6----------------6----------------6-----|
B|---4-3-4-6-4--4-----4-3-4-6-4--4-----4-3-4-6-4--4-----4-3-4-6-4--4-----|
G|-----------------------------------------------------------------------|
D|-----------------------------------------------------------------------|
A|-----------------------------------------------------------------------|
D|-----------------------------------------------------------------------|


Bridge ('no one cares') piano arranged for guitar:
e|-----------------------------------------------------------------------|
B|-----------------------------------------------------------------------|
G|---10-10-10-12-8-8--7-7-7-8-5-5-----3-3-3-3-3-3-------3-3-3-3-3-3------|
D|-----------------------------------------------------------------------|
A|-----------------------------------------------------------------------|
D|-----------------------------------------------------------------------|


Lyrics:

I see it around me, I see it in everything.
I could be so much more than this.
I said my goodbye's, this is my sundown.
I'm gonna be so much more than this.

With one hand high, you'll show them your progress.
You'll take your time, but no one cares.
No one cares.

I need you to show me the way from crazy.
I wanna be so much more than this.
With one hand high, you'll show them your progress.

You'll take your time, but no one cares.
With one hand high, you'll show them your progress.

You'll take your time, but no one cares.

No one cares.
(I could be so much more than this)
No one cares.
(I wanna be so much more than this)

(Repeat)

Good Goodbye, lovely time.
Good Goodbye, tinsel shine.
Good Goodbye, I'll be fine.
Good Goodbye, good goodnight.
Tap to rate this tab
 
# A B C D E F G H I J K L M N O P Q R S T U V W X Y Z