Song name
# A B C D E F G H I J K L M N O P Q R S T U V W X Y Z

Jimmy Eat World - I Will Steal You Back tab

Intro/Verse 1
Guitar 1 - left side
e|------------------------------------------------------------------|
B|------------------------------------------------------------------|
G|------------------------------------------------------------------|
D|-555-555-555-555--222-222-222-22--999-999-999-999--777-777-777-77-|
A|-555-555-555-555--222-222-222-22--999-999-999-999--777-777-777-77-|
D|-555-555-555-555--222-222-222-22--999-999-999-999--777-777-777-77-|

Guitar 2 - right side
e|-------------------------------------------------------------|
B|-------------------------------------------------------------|
G|-------------------------------------------------------------|
D|-555-55--555-55--222-22-222-22--999-99-999-99--777-77-777-77-|
A|-555-55--555-55--222-22-222-22--999-99-999-99--777-77-777-77-|
D|-555-55--555-55--222-22-222-22--999-99-999-99--777-77-777-77-|

Guitar 3
                                    "the picture"  "that story"
e|--------------------------------|-------------------|-------|
B|--------------------------------|-------------------|-------|
G|-7---9--7---9---7---9-6~---7~---|-7---9--7---9---7~-|-7---9-|
D|---7------7-------7-------------|---7------7--------|---7---|
A|--------------------------------|-------------------|-------|
D|--------------------------------|-------------------|-------|

Before going into the chorus, end on this
e|--------|
B|--------|
G|--------|
D|-7------|
A|-7------|
D|-7(x10)-|


Chorus
Guitar 1 and 2
e|------------------------------------------------------------------------------------|
B|------------------------------------------------------------------------------------|
G|------------------------------------------------------------------------------------|
D|-XX--555-555-555-555---222-222-222-222---999/111111/121212-121212---777-777-777-777-|
A|-XX--555-555-555-555---222-222-222-222---999/111111/121212-121212---777-777-777-777-|
D|-XX--555-555-555-555---222-222-222-222---999/111111/121212-121212---777-777-777-777-|

Guitar 3
e|------------------------------------------------------------|
B|------------------------------------------------------------|
G|-121212-121212-121212-121212--121212-121212-121212-121212---|
D|-121212-121212-121212-121212--121212-121212-121212-121212---|
A|------------------------------------------------------------|
D|------------------------------------------------------------|

e|----------------------------------------------------------|
B|----------------------------------------------------------|
G|-111111-111111-111111-111111--9-9-9--9-9-9--9-9-9--9-9-9--|
D|-121212-121212-121212-121212--121212-121212-121212-121212-|
A|----------------------------------------------------------|
D|----------------------------------------------------------|

Pre Verse
Guitar 1
e|---------------|
B|---------------|
G|-7777\666\4~~~-|
D|-xxxx-xxx-x~~~-|
A|-5555\444\2~~~-|
D|---------------|

Guitar 2
e|--------------------------------------------------|
B|--------------------------------------------------|
G|-444-44-44-44-44-44-44-44--777-7-7/9\666-66-6/7\6-|
D|-xxx-xx-xx-xx-xx-xx-xx-xx--xxx-x-x-x-xxx-xx-x-x-x-|
A|-222-22-22-22-22-22-22-22--555-5-5/7\444-44-4/5\4-|
D|--------------------------------------------------|

Verse 2
Guitar 1
e|-------------------------------|
B|-------------------------------|
G|-------------------------------|
D|-5-------2------9-------7------|
A|-5-------2------9-------7------|
D|-5-(x16)-2(x16)-9-(x16)-7(x16)-|

Guitar 2
e|--------------------------------------------------|
B|--------------------------------------------------|
G|-444-44-44-44-44-44-44-44--777-7-7/9\666-66-6/7\6-|
D|-xxx-xx-xx-xx-xx-xx-xx-xx--xxx-x-x-x-xxx-xx-x-x-x-|
A|-222-22-22-22-22-22-22-22--555-5-5/7\444-44-4/5\4-|
D|--------------------------------------------------|

Before going into the chorus, end on this again
e|--------|
B|--------|
G|--------|
D|-7------|
A|-7------|
D|-7(x10)-|

Repeat Chorus


Solo
Guitar 1
e|-------------------------------------------------------------------|
B|-------------------------------------------------------------------|
G|-----------9---------------9-----9\\1111--111111-111111-12-999\7\6-|
D|-12\11-99----9---12\11-99-----9------------------------------------|
A|-------------------------------------------------------------------|
D|-------------------------------------------------------------------|

e|------------12-----------------12-----12/1414--141414-141414-15-1212121212----------------------|
B|-15\14-1212----12---15\14-1212----12----------------------------------------15\14-14h15p14\12~~~|
G|------------------------------------------------------------------------------------------------|
D|------------------------------------------------------------------------------------------------|
A|------------------------------------------------------------------------------------------------|
D|------------------------------------------------------------------------------------------------|

Guitar 2
e|----------------------------------------------------------------------|
B|----------------------------------------------------------------------|
G|----------------------------------------------------------------------|
D|-XX--555-555-555-555--222-222-222-22--999-999-999-999--777-777-777-77-|
A|-XX--555-555-555-555--222-222-222-22--999-999-999-999--777-777-777-77-|
D|-XX--555-555-555-555--222-222-222-22--999-999-999-999--777-777-777-77-|

Guitar 3
e|------------------------------------------------------------|
B|------------------------------------------------------------|
G|-121212-121212-121212-121212--121212-121212-121212-121212---|
D|-121212-121212-121212-121212--121212-121212-121212-121212---|
A|------------------------------------------------------------|
D|------------------------------------------------------------|

e|----------------------------------------------------------|
B|----------------------------------------------------------|
G|-111111-111111-111111-111111--9-9-9--9-9-9--9-9-9--9-9-9--|
D|-121212-121212-121212-121212--121212-121212-121212-121212-|
A|----------------------------------------------------------|
D|----------------------------------------------------------|

Repeat Chorus
Guitar 3
                             ends on
e|-15(x32)-14(x16)-12(x12)-|-14~---|
B|-------------------------|-------|
G|-------------------------|-------|
D|-------------------------|-------|
A|-------------------------|-------|
D|-------------------------|-------|

Outro
Guitar 1 and 2
e|-----|
B|-----|
G|-7~~~|
D|-5~~~|
A|-5~~~|
D|-5~~~|

Guitar 1 feedback
e|-------------------22~\\\\-|
B|----------15~~~------------|
G|-7~~~~~~~------------------|
D|---------------------------|
A|---------------------------|
D|---------------------------|
Tap to rate this tab
# A B C D E F G H I J K L M N O P Q R S T U V W X Y Z