Song name
# A B C D E F G H I J K L M N O P Q R S T U V W X Y Z

Jimmy Eat World - Byebyelove tab

Artist: Jimmy Eat World
Song: Byebyelove
Album: Damage
Standard tuning

Eb5 Db5 B section:
--------------------------------|
--------------------------------|
----------------4-4-4-4-4-4-4-4-|
8-------6-------4-4-4-4-4-4-4-4-|
6-------4-------2-2-2-2-2-2-2-2-|
--------------------------------|

F# C# B section:
--------9-------7----------|
11------9-------7----------|
11------10------8  Play B--| 8x
11------11------9----------|
9-------11------9----------|
--------9-------7----------|

Eb5      Db5    B
I walked out at 3 am
    Eb5    Db5    B
The coward inside told me so
  Eb5     Db5      B
I couldnt stand to lie with you
      Eb5    Db5     B
Cause when I do then I can tell

    Eb5 Db5 B     Eb5 Eb5 B
Its bye bye love, bye bye love
    Eb5 Db5 B     Eb5 Eb5 B
Its bye bye love, bye bye looove

  Eb5   Db5       B
I wanna feel like golden light
      Eb5    Db5     B
Watch summer dancing through your hair
Eb5     Db5    B
So much I wish I could hold
Eb5        Db5      B
Instead of carrying memories

Eb5 Db5   B     Eb5 Db5 B
Bye byyye love, bye bye love
    Eb5 Db5 B     Eb5 Db5 B
Its bye bye love, bye bye looove
F#  C#  B     F#  C#    B
Bye bye love, bye byyye love
F#  C#    B     F#  C#  B
Bye byyye love, bye bye loove

Interlude (see below)

Eb5 Db5   B     Eb5 Db5 B
Bye byyye love, bye bye love
    Eb5 Db5 B     Eb5 Db5 B
Its bye bye love, bye bye love
F#  C#  B     F#  C#    B
Bye bye love, Bye byyye love
F#  C#  B     F#  C#  B
Bye bye love, Bye bye loove

End on B

Interlude (16 measures) - Guitar riff and power chords/riff  2 guitars, voice section
The tab shows the two guitar parts for the 16 measures (2 measures per line, first
guitar on top, second on bottom, giggity), the voice part begins in the 9th measure  and Ive
arranged those 8 measures for guitar as shown in the tab(lines 9-12). Just play a third
guitar or sing this over the second 8 measures in the interlude.
Interlude begins at 2:24, voice section begins at 2:55
--------------------------------|
11------11------9-------9-------|
--------------------------------|  (x2)
--------------------------------|
--------------------------------|
--------------------------------|

--------------------------------|
11------11------9-------9-------|  (x2)
----------------4---------------|
4---------------4---------------|
4---------------2---------------|
2-------------------------------|

--------------------------------  --------------------------------|
11------11------9-------9-------  11------11------9-------9-------|
--------------------------------  --------------------------------|
--------------------------------  --------------------------------|
--------------------------------  --------------------------------|
2---2---4---4---6---6---9-------  7---7---7---7---7---7---7---7---|

--------------------------------  --------------------------------|
11------11------9-------9-------  11------11------9-------9-------|
--------------------------------  --------------------------------|
--------------------------------  --------------------------------|
--------------------------------  ----------------9-------8-------|
2---2---4---4---6---6---9-------  7---7---7---7---7---7---7---7---|

(Voice section begins here:)
--------------------------------  --------------------------------|
11------11------9-------9-------  11------11------9-------9-------|
--------------------------------  --------------------------------|
--------------------------------  --------------------------------|
4-------------------------------  ----------------9-------8-------|
2---2---4---4---6---6---9-------  7---7---7---7---7---7---7---7---|

--------------------------------  --------------------------------|
11------11------9-------9-------  11------11------9-------9-------|
--------------------------------  --------------------------------|
--------------------------------  --------------------------------|
4-------------------------------  ----------------9-------8-------|
2---2---4---4---6---6---9-------  7---7---7---7---7---7---7---7---|

--------------------------------  --------------------------------|
11------11------9-------9-------  11------11------9-------9-------|
--------------------------------  --------------------------------|
--------------------------------  --------------------------------|
4-------------------------------  --------------------------------|
2-------4-------6-------9-------  7---7---7---7---7---7---7---7---|

--------------------------------  --------------------------------|
11------11------9-------9-------  11------11------9-------9-------|
--------------------------------  --------------------------------|
--------------------------------  ----------------------------9\0-|
4-------------------------------  ----------------------------9\0-|
2-------4-------6-------9-------  7---7---7---7---7---7---7---7\0-|

Back to "Bye bye love..."
Voice section - begins at 2:55

--------------------------------  --------------------------------|
----2-------2-------2-------2---  --------------------------------|
3-------3-------3-------3-------  4-------4-------4---4---4---4---|
--------------------------------  --------------------------------|
--------------------------------  --------------------------------|
--------------------------------  --------------------------------|

--------------------------------  ----2-------2---2---2---2---2---|
---2-2-----2-2-----2-2-----2-2--  --------------------------------|
4-------4-------4-------4-------  --------------------------------|
--------------------------------  --------------------------------|
--------------------------------  --------------------------------|
--------------------------------  --------------------------------|

2-------2-------2-------2-------  1---2---1---2---1---2---1---2---|
---2-2-----2-2-----2-------2----  --------------------------------|
--------------------------------  --------------------------------|
--------------------------------  --------------------------------|
--------------------------------  --------------------------------|
--------------------------------  --------------------------------|

2-------2-------2-------2-------  2---2---2---2---2---2---2---2---|
---2-2-----2-------2-------2----  --------------------------------|
--------------------------------  --------------------------------|
--------------------------------  --------------------------------|
--------------------------------  --------------------------------|
--------------------------------  --------------------------------|

Hope you enjoy this great tune!

Tabbed by Luke Bartak on June 18, 2013
I used the Tab Builder app for iPad created by Michael Kreyer and Joseph Wain to create
the tab.
Tap to rate this tab
# A B C D E F G H I J K L M N O P Q R S T U V W X Y Z