Song name
# A B C D E F G H I J K L M N O P Q R S T U V W X Y Z

Jimmy Eat World - If You Dont Dont tab

Song: If You Don't, Don't 
Album: Bleed American (2001)
Author: Patrick Bolter
Email: Patric@hotmail.com.au
Last Updated: 7/22/2013

I couldn't find the solo for "if you don't, don't" anywhere, so I thought I would
tab it myself. Didn't take too long and it sounds right, so I decided to throw in 
the rest of the song. 
I based it on a live version but it's the same notes for the album version. 
Listen for timing, some notes are played fast, others have pauses. 
The guitar 1 in the bridge section mimics the hoo-oo-oooo-oo's from the vocals 
and is played in live versions.

Intro/Verses
Guitar 1 (Reverse Phaser)
E|-4-4-4-4-|
B|-4-4-4-4-|
G|-5-5-5-5-|
D|-6-6-6-6-|
A|---------|
E|---------|

Guitar 2 (Clean or Overdrive sometimes live)
E|---------|
B|---------|
G|-6-6-6-6-|
D|-6-6-6-6-|
A|-4-4-4-4-|
E|---------|

Prechorus/Chorus
Guitar 1 (Reverse Phaser)
E|-4-4-4-4-4-4-4-4-|-4-4-4-4-4-4-4-4-|-4-4-4-4-4-4-4-4-|-4-4-4-4-4-4-4-4-|
B|-6-6-6-6-6-6-6-6-|-6-6-6-6-6-6-6-6-|-7-7-7-7-7-7-7-7-|-7-7-7-7-7-7-7-7-|
G|-6-6-6-6-6-6-6-6-|-6-6-6-6-6-6-6-6-|-6-6-6-6-6-6-6-6-|-6-6-6-6-6-6-6-6-|
D|-----------------|-----------------|-----------------|-----------------|
A|-----------------|-----------------|-----------------|-----------------|
E|-----------------|-----------------|-----------------|-----------------|

Guitar 2 (Clean or Overdrive sometimes live)
E|-------------------------|-------------------------|
B|-------------------------|-------------------------|
G|-10-10-10-10-10-10-10-10-|-10-10-10-10-10-10-10-10-|
D|-10-10-10-10-10-10-10-10-|-10-10-10-10-10-10-10-10-|
A|--8--8--8--8--8--8--8--8-|--8--8--8--8--8--8--8--8-|
E|-------------------------|-------------------------|

E|-------------------------|-------------------------|
B|-------------------------|-------------------------|
G|-11-11-11-11-11-11-11-11-|-11-11-11-11-11-11-11-11-|
D|-11-11-11-11-11-11-11-11-|-11-11-11-11-11-11-11-11-|
A|--9--9--9--9--9--9--9--9-|--9--9--9--9--9--9--9--9-|
E|-------------------------|-------------------------|

Bridge
Guitar 2 (Reverse Phaser)
E|----------------------------------------|-----------------------------------------|
B|---9----9----9----9----9----9----9----9-|----9----9----9----9----9----9----9----9-|
G|10---10---10---10---10---10---10---10---|-11---11---11---11---11---11---11---11---|
D|----------------------------------------|-----------------------------------------|
A|----------------------------------------|-----------------------------------------|
E|----------------------------------------|-----------------------------------------|

Guitar 2 (Reverse Phaser)
E|-----------------------------------------|-----------------------------------------|
B|----9----9----9----9----9----9----9----9-|----9----9----9----9----9----9----9----9-|
G|-10---10---10---10---10---10---10---10---|-11---11---11---11---11---11---11---11---|
D|-----------------------------------------|-----------------------------------------|
A|-----------------------------------------|-----------------------------------------|
E|-----------------------------------------|-----------------------------------------|

Guitar 1 comes in over Guitar 2 (Delay)
E|-----------------|-----------------|-----------------|-----------------|
B|-9-9-------------|-9-9-----------6-|-9-9-----9-9-----|-9-9-------6-6---|
G|-----8-6-6-5-6-6-|-----8-6-6-6-8---|-----8-6-----8-6-|-----8-6-8-------|
D|-----------------|-----------------|-----------------|-----------------|
A|-----------------|-----------------|-----------------|-----------------|
E|-----------------|-----------------|-----------------|-----------------|

Solo
Guitar 1 and 2 (Overdriven)
E|------------------------|---------------------------|---------------------------|
B|------------------------|---------------------------|---------------------------|
G|-13-10-8-10-8-6-6-6-6-6-|-13-13-10-8-10-8-6-6-6-6-6-|-13-13-10-8-10-8-6-6-6-6-6-|
D|--x--x-x--x-x-x-x-x-x-x-|--x--x--x-x--x-x-x-x-x-x-x-|--x--x--x-x--x-x-x-x-x-x-x-|
A|-11--8-6--8-6-4-4-4-4-4-|-11-11--8-6--8-6-4-4-4-4-4-|-11-11--8-6--8-6-4-4-4-4-4-|
E|------------------------|---------------------------|---------------------------|

E|------------------------|-----------------------------|-----------------------------------------|
B|------------------------|-----------------------------|-----------------------------------------|
G|-13-10-8-10-8-6-6-6-4---|-8-8-10-11-10-11-10-10-10-10-|-8-8-10-11-10-11-10-10-11-10-10-10-10-10-|
D|--x--x-x--x-x-x-x-x-x---|-x-x--x--x--x--x--x--x--x--x-|-x-x--x--x--x--x--x--x--x--x--x--x--x--x-|
A|-11--8-6--8-6-4-4-4-2---|-6-6--8--9--8--9--8--8--8--8-|-6-6--8--9--8--9--8--8--8--8--8--8--8--8-|
E|------------------------|-----------------------------|-----------------------------------------|

E|------------------------|------------------------|---|
B|------------------------|------------------------|---|
G|-13-10-8-10-8-6-6-6-6-6-|-13-10-8-10-8-6-6-4-----|-6-|
D|--x--x-x--x-x-x-x-x-x-x-|--x--x-x--x-x-x-x-x-----|-x-|
A|-11--8-6--8-6-4-4-4-4-4-|-11--8-6--8-6-4-4-2-----|-4-|
E|------------------------|------------------------|---|

Outro
Guitar 1 & 2 (Overdriven)
E|-------------|---|
B|-------------|---|
G|-11-11-11-11-|-6-|
D|-11-11-11-11-|-6-|
A|--9--9--9--9-|-4-|
E|-------------|---|

Tap to rate this tab
 
# A B C D E F G H I J K L M N O P Q R S T U V W X Y Z