Song name
# A B C D E F G H I J K L M N O P Q R S T U V W X Y Z

Jimmy Eat World - For Me This Is Heaven Acoustic tab

-------------------------------------------------------------------------------
                             For Me This Is Heaven Acoustic - Jimmy Eat World
-------------------------------------------------------------------------------
Tabbed by: Aidan

Since there wasn't a tab for the acoustic version of this song I thought I'd give it a go.
I based this off the version performed for the iTunes session so other live 
performances may vary slightly. 
As far as I can tell this is accurate, apologies if it's not clear.

Tuning: Drop D Capo on 4th fret

Intro

e|----0----0----------0----0-------------------------------------------------|
B|---------------------------------------------------------------------------|
G|--2----2----2-----2----2----2----------------------------------------------| X3
D|4----2----------0----0----0------------------------------------------------|
A|----------4----------------------------------------------------------------|
D|---------------------------------------------------------------------------|

e|----0----0----------0----0----0----0----2----2----2----0-------------------|
B|---------------------------------------------------------------------------|
G|--2----2----2-----2----2----2----2----2----2----2----2---------------------| 
D|4----2----------0----0----0----0----0----0----0----0-----------------------|
A|----------4----------------------------------------------------------------|
D|---------------------------------------------------------------------------|

Verse 1

 The first star I see...
e|---------------------------------------------------------------------------|
B|---------------------------------------------------------------------------|
G|---------------------------------------------------------------------------| X3
D|----0----0----0----0----0----0----0----0-----------------------------------| 
A|--0----0----0----0----0----0----0----0-------------------------------------|
D|2----2----4----4----0----0----0----0---------------------------------------|

e|---------------------------------------------------------------------------|
B|---------------------------------------------------------------------------|
G|---------------------------------------------------------------------------|
D|----0----0----0----0----0----0----0----0----0------------------------------| 
A|--0----0----0----0----0----0----4----2----0--------------------------------|
D|2----2----4----4----0----0-------------------------------------------------|

e|---------------------------------------------------------------------------|
B|---------------------------------------------------------------------------|
G|----2----2----2----2-------------------------------------------------------| X2
D|--0----0----0----0------0---0-------0---0----------------------------------| 
A|-----4---------4------0---0---0---0---0---0--------------------------------|
D|2---------4---------0-----------0------------------------------------------|


Verse 2

 Time such clumsy time...
e|---------------------------------------------------------------------------|
B|---------------------------------------------------------------------------|
G|---------------------------------------------------------------------------|
D|----0----0----0----0----0----0----0----0-----------------------------------|
A|--0----0----0----0----0----0----0----0-------------------------------------|
D|2----2----4----4----0----0----0----0---------------------------------------|

e|---------------------------------------------------------------------------|
B|---------------------------------------------------------------------------|
G|---------------------------------------------------------------------------|
D|----0----0----0----0----0----0----0----0----0------------------------------| 
A|--0----0----0----0----0----0----4----2----0--------------------------------|
D|2----2----4----4----0----0-------------------------------------------------|

e|---------------------------------------------------------------------------|
B|---------------------------------------------------------------------------|
G|----2----2----2----2-------------------------------------------------------| 
D|--0----0----0----0------0----0----0----0-----------------------------------|
A|-----4---------4------0----0----0----0-------------------------------------|
D|2---------4---------0----0----0----0---------------------------------------|

e|---------------------------------------------------------------------------|
B|---------------------------------------------------------------------------|
G|----2----2----2----2-------------------------------------------------------| 
D|--0----0----0----0------0----0----0----0----0------------------------------|
A|-----4---------4------0----0----4----2----0--------------------------------|
D|2---------4---------0----0-------------------------------------------------|


Chorus

 When the time we have now ends...
e|----0------------0---------------------------------------------------------|
B|---------------------------------------------------------------------------|
G|-----------2------------2-----2----2----2----2-----------------------------|
D|---------0------------0-----2----2----0----0-------------------------------|
A|--0----4-------0----4------------------------------------------------------|
D|2------------4------------0----0----0----0---------------------------------|

e|----0------------0---------------------------------------------------------|
B|---------------------------------------------------------------------------|
G|-----------2------------2-----2----2----2----------------------------------|
D|---------0------------0-----2----2----4----4p2-----------------------------|
A|--0----4-------0----4------------------------------------------------------|
D|2------------4------------0----0----0----0---------------------------------|

e|----0------------0---------------------------------------------------------|
B|---------------------------------------------------------------------------|
G|-----------2------------2-----2----2----2----2-----------------------------|
D|---------0------------0-----2----2----0----0-------------------------------|
A|--0----4-------0----4------------------------------------------------------|
D|2------------4------------0----0----0----0---------------------------------|

e|----0----------------------------------------------------------------------|
B|-----------------0---------------------------------------------------------|
G|-----------2------------2-----2----2----2----2-----------------------------|
D|---------0------------0-----2----2----2----2-------------------------------|
A|--0----4-------0----4------------------------------------------------------|
D|2------------4------------0----0----0----0---------------------------------|

Fill

e|---------------------------------------------------------------------------|
B|---------------------------------------------------------------------------|
G|---------------------------------------------------------------------------|
D|----0----0----0----0----0---0-------0---0----------------------------------|
A|--0----0----0----0----0---0---0---0---0---0--------------------------------|
D|2----2----4----4----0-----------0------------------------------------------|

e|---------------------------------------------------------------------------|
B|---------------------------------------------------------------------------|
G|---------------------------------------------------------------------------|
D|----0----0----0----0----0----0----0----0-----------------------------------|
A|--0----0----0----0----0----0----0----0-------------------------------------|
D|2----2----4----4----0----0----0----0---------------------------------------|


Verse 3

 The mindless comfort grows...
e|---------------------------------------------------------------------------|
B|---------------------------------------------------------------------------|
G|---------------------------------------------------------------------------|
D|----0----0----0----0----0----0----0----0-----------------------------------|
A|--0----0----0----0----0----0----0----0-------------------------------------|
D|2----2----4----4----0----0----0----0---------------------------------------|

e|---------------------------------------------------------------------------|
B|---------------------------------------------------------------------------|
G|---------------------------------------------------------------------------|
D|----0----0----0----0----0----0----0----0----0------------------------------| 
A|--0----0----0----0----0----0----4----2----0--------------------------------|
D|2----2----4----4----0----0-------------------------------------------------|

e|---------------------------------------------------------------------------|
B|---------------------------------------------------------------------------|
G|----2----2----2----2-------------------------------------------------------| 
D|--0----0----0----0------2----2----0----0-----------------------------------|
A|-----4---------4------0----0----0----0-------------------------------------|
D|2---------4---------0----0----0----0---------------------------------------|

e|---------------------------------------------------------------------------|
B|---------------------------------------------------------------------------|
G|----2----2----2----2-------------------------------------------------------| 
D|--0----0----0----0------0----0----0----0----0------------------------------|
A|-----4---------4------0----0----4----2----0--------------------------------|
D|2---------4---------0----0-------------------------------------------------|


REPEAT CHORUS

Bridge

 I close my eyes...
e|----0----0----------0----0-------------------------------------------------|
B|---------------------------------------------------------------------------|
G|--2----2----2-----2----2----2----------------------------------------------| X10
D|4----2----------0----0----0------------------------------------------------|
A|----------4----------------------------------------------------------------|
D|---------------------------------------------------------------------------|

e|----0----0----0----0----0----0----0----0----0----0----0---0---0---0---0---0|
B|---------------------------------------------------------------------------|
G|--2----2----2----2----2----2----2----2----2----2----2---2---2---2---2---2--|
D|---------------------------------------------------------------------------|
A|4----4----4----4----2----2----2----2---------------------------------------|
D|----------------------------------------4----4----4---4---0---0---0---0----|


END WITH CHORUS


************************************

| /   slide up
| \   slide down
| h   hammer-on
| p   pull-off
| ~   vibrato
| +   harmonic
| x   Mute note
| b   Bend
| pb  Pre-bend
| br  Bend release
| pbr Pre-bend release
| brb Bend release bend

************************************
Tap to rate this tab
 
# A B C D E F G H I J K L M N O P Q R S T U V W X Y Z