Song name
# A B C D E F G H I J K L M N O P Q R S T U V W X Y Z

Jimmy Eat World - Here It Goes tab

Song: Here It Goes
Album: Chase This Light (2007)
Author: Patrick Bolter
Email: Patric@hotmail.com.au
Last Updated: 8/16/2013

Intro - Guitar 2

e|------------------------------------------|
B|-12\9-9-9-9-9\7-7-7-7-7\5-5-5-5-5-4h5-4h5-|
G|------------------------------------------|
D|------------------------------------------|
A|------------------------------------------|
E|------------------------------------------|

Verse 1 - Guitar 1
e|-----------------------|
B|-----------------------|
G|-------4-----6----2----|
D|-2-----4-x16-6-x8-2-x8-|
A|-2-x16-2-----4----0----|
E|-0---------------------|

Chorus - Guitar 2
e|--------------------------------------------------------|
B|-4-5-5-4-4-5-5-4-4-5-5-4-4-5-5-0-2-0-0-2-2-0-0-2-2-0-0-0|
G|--------------------------------------------------------|
D|--------------------------------------------------------|
A|--------------------------------------------------------|
E|--------------------------------------------------------|

Chorus - Guitar 1
e|-----------------------|
B|-----------------------|
G|-----------------------|
D|14-----9---------------|
A|14-x16-9-x16-----------|
E|12-----7---------------|

Verse 2 - Guitar 2

e|------------------------------------------|
B|-12\9-9-9-9-9\7-7-7-7-7\5-5-5-5-5-4h5-4h5-|
G|------------------------------------------|
D|------------------------------------------|
A|------------------------------------------|
E|------------------------------------------|

Verse 2 - Guitar 1
e|-----------------------|
B|-----------------------|
G|-------4-----6----2----|
D|-2-----4-x16-6-x8-2-x8-|
A|-2-x16-2-----4----0----|
E|-0---------------------|

Bridge
e|--------------------------------|
B|--------------------------------|
G|---------------------------9----|
D|-9----6-------7-------9----9-x4-|
A|-9-x4-6-x4----7-x8----9-x4-7----|
E|-7----4-------5-------7---------|

e|-------------------------|
B|-------------------------|
G|-------------------------|
D|14-----9-----10----7-----|
A|14-x16-9-x16-10-x8-7-x24-|
E|12-----7------9----5-----|
Tap to rate this tab
 
# A B C D E F G H I J K L M N O P Q R S T U V W X Y Z