Song name
# A B C D E F G H I J K L M N O P Q R S T U V W X Y Z

Jimmy Eat World - No Never tab

-------------------------------------------------------------------------------
                             NO, NEVER - Jimmy Eat World
-------------------------------------------------------------------------------

Tabbed by: Matthias Hövelmanns

Tuning: Guitar 1 (Jim Atkins): Drop D (Capo on 4th Fret)
        Guitar 2 (Tom Linton): Drop D (Capo on 3th Fret)

Info: - all notes/chords are relative to capo
      - chords are written down only once (listen to the song for the right amount of strokes)

Have Fun!
                
[INTRO / VERSE]

Guitar 1:

e|--------------------------------------------|
B|--------------------------------------------|
G|--------------------------------------------|
D|--------------------------------------------|
A|-----2-------4--------0------0---0----------|
D|-2-2---2-4-4---4--0-0---0--0---0------------| x4

then (0:25):

e|-0---0------0--------------|
B|-0---0------0--------------|
G|-2---2------2--------------|
D|-2---2------2--------------|
A|---------------------------|
D|---------------------------| x8
  (D) (U)    (D)

Guitar 2:
 
e|-----1-------1-------1-----------------------------------------------------|
B|---1-------1---1-----1-----------------------------------------------------|
G|-2-------3-----------0-----------------------------------------------------|
D|---------------------------------------------------------------------------|
A|---------------------------------------------------------------------------|
D|---------------------------------------------------------------------------| x4

[CHORUS]

Guitar 1:

e|----------------------0-0-0-0-0-0-0-0-0-0-0-0-0-0-0-0----------------------|
B|----------------------2-2-2-2-0-0-0-0-2-2-2-2-0-0-0-0----------------------|
G|-2--------------------2-2-2-2-2-2-2-2-2-2-2-2-2-2-2-2----------------------|
D|-2---2---4-----------------------------------------------------------------|
A|-0---2---4-----------------------------------------------------------------|
D|-----2---4-----------------------------------------------------------------| x4
                 then:

Guitar 2:

e|-------------------------|
B|-------------------------|
G|-------------------------|
D|-3---3---5---1-----------|
A|-1---3---5---1-----------|
E|-----3---5---1-----------| x4

[BRIDGE]

Guitar 1:

e|--------------------------|
B|--------------------------|
G|-----2--------------------|
D|-4---2---2---0------------|
A|-4---0---2---0------------|
D|-4-------2---0------------| x4

Guitar 2:

e|--------------------------|
B|--------------------------|
G|--------------------------|
D|-5---8---3---1------------|
A|-5---8---3---1------------|
D|-5---8---3---1------------| x4

INTRO
VERSE
CHORUS
VERSE
CHORUS
BRIDGE
CHORUS

thanks for using my tab! a postive rating or a nice comment is appreciated :)

************************************

| /   slide up
| \   slide down
| h   hammer-on
| p   pull-off
| ~   vibrato
| +   harmonic
| x   Mute note
| b   Bend
| pb  Pre-bend
| br  Bend release
| pbr Pre-bend release
| brb Bend release bend

************************************
Tap to rate this tab
# A B C D E F G H I J K L M N O P Q R S T U V W X Y Z