Guitaretab - guitar tabs
Song name
# A B C D E F G H I J K L M N O P Q R S T U V W X Y Z

Jimmy Eat World - Middle tab

The Middle-Jimmy Eat World



E||------------------------------|-----------------------|
B||--2h3p2-----------------------|-----------------------|
G||----------2--0----------------|-----------------------|
D||----------------4h5p4---------|--2--0---------0-------|
A||------------------------4--0--|----------4---------4--|
E||------------------------------|-----------------------|

------------------------|-------------------------|
------------------------|-------------------------|
------------------------|-------------------------|
--2----0-----0-------0--|--2----------------------|
----------4-------4-----|-----------0-------------|
------------------------|-------------------------|

------------------------------|-----------------------|
--2h3p2-----------------------|-----------------------|
----------2--0----------------|-----------------------|
----------------4h5p4---------|--2--0---------0-------|
------------------------4--0--|----------4---------4--|
------------------------------|-----------------------|

----------------------------------|---------------------------------|
----------------------------------|---------------------------------|
----------------------------------|---------------------------------|
----------------------------------|---------------------------------|
5-5-5-5-7-7-7-7-9-9-9-9-10-10-10-10---------------------------------
----------------------------------|---------------------------------|
[ Tab from: http://www.guitaretab.com/j/jimmy-eat-world/40056.html ]
------------------------|------------------------|------------------------|
------------------------|------------------------|------------------------|
------------------------|------------------------|--7--7----7--9--9----9--|
--7----5--4--5----4--5--|--7----5--4--5----4--5--|------------------------|
------------------------|------------------------|------------------------|
------------------------|------------------------|------------------------|

------------------------|--10-10-10-10-10-10-10-10-9-9-9-9-9-9-9-9-|
--7--7----7--8----7--8--|------------------------------------------|
------------------------|------------------------------------------|
------------------------|------------------------------------------|
------------------------|------------------------------------------|
------------------------|------------------------------------------|

--------------------------------------------------|---------------------|
--12-12-12-12-12-12-12-12-10-10-10-10-10-10-10-10-|---------------------|
--------------------------------------------------|--9------7------6----|
--------------------------------------------------|---------------------|
--------------------------------------------------|---------------------|
--------------------------------------------------|---------------------|

---------------------||
---------------------||
---------------------||
----9------7----5----||
---------------------||
---------------------||
Related for Middle tab
Middle chords by Jimmy Eat World