Song name
# A B C D E F G H I J K L M N O P Q R S T U V W X Y Z

Jimmy Eat World - Just Tonight tab

Song:  Just Tonight…						Eb, Ab, Db, Gb, Bb, Eb
Artist: Jimmy Eat World

I really like the intro on this song but I get bored after that so I think this intro is 
or sounds ok.  It sounds like two guitars playing, one the high octave and one the low 
 The rest of the song is pretty easy but I’m too lazy to tab it out.

Guitar I
|---------5----5-----------5------------5/7------5--------------------------------|  x3
|--3--5----5-----5---3------5---3-------------------------------------------------|
|---------------------------------------------------------------------------------|
|---------------------------------------------------------------------------------|
|---------------------------------------------------------------------------------|
|---------------------------------------------------------------------------------|

Guitar II

|-----------------------------------------------------------------------------------|  x3
|-----------------------------------------------------------------------------------|
|----------2------2----------------2-------------2/4-----2--------------------------|
|--0---2-----2--------2-----0---------2---0-----------------------------------------|
|-----------------------------------------------------------------------------------|
|-----------------------------------------------------------------------------------|


Then the fourth time that they do it goes like
All 8th  notes

Guitar I

|---------5----5-----------5------------5---------5/7-----5-----------------------|
|--3--5----5-----5---3------5---3---------5---------------------------------------|
|---------------------------------------------------------------------------------|
|---------------------------------------------------------------------------------|
|---------------------------------------------------------------------------------|
|---------------------------------------------------------------------------------|

Guitar II

|---------------------------------------------------------------------------------|
|---------------------------------------------------------------------------------|
|----------2------2----------------2-------------2------2/4---2-------------------|
|--0---2-----2--------2-----0---------2---0--------2------------------------------|
|---------------------------------------------------------------------------------|
|---------------------------------------------------------------------------------|
Tap to rate this tab
# A B C D E F G H I J K L M N O P Q R S T U V W X Y Z