Song name
# A B C D E F G H I J K L M N O P Q R S T U V W X Y Z

Jimmy Eat World - Roller Queen tab

Artist: Jimmy Eat World
Song Title: "Roller Queen"
Album: Jimmy Eat World - EP (1998)
Tabbed by: Chris McGowan
E-mail: cmcg@satx.rr.com
Tuning: Drop D (DADGBE) with capo on 2nd fret.

KEY:
/ = Slide up
\ = Slide down
^ = Bend string
<#> = Natural harmonic

NOTE:  Before I begin, keep in mind that I have just tabbed one guitar for this song.  
apparent at some parts of the song that there is a second guitar playing another riff 
with the other, but this tab is good for playing solo.  Enjoy!


Intro: (0:08)
E|------------------------------<12>------9-----------------------|
B|----------------------------------------------------------------|
G|-----------------------------------<7>--------------------------|
D|-------------------------------------------<7>------------------|  (x2)
A|-0--0--0--0--0--0--0--0-----------------------------------------|
D|-------------0--0--0--0--2/4-4----------------0--0--0--0--------|


Verse 1: (0:26)
E|------------------------------<12>------9-----------------------|
B|----------------------------------------------------------------|
G|-----------------------------------<7>--------------------------|
D|-------------------------------------------<7>------------------|  (x4)
A|-0--0--0--0--0--0--0--0-----------------------------------------|
D|-------------0--0--0--0--2/4-4----------------0--0--0--0--------|


Chorus 1: (1:03)
E|-0--0--0--0---0--0--0--0---0--0--0--0---0--0--0--0--------------|
B|-0--0--0--0---3--3--3--3---0--0--0--0---3--3--3--3--------------|
G|-6--6--6--6---2--2--2--2---2--2--2--2---2--2--2--2--------------|
D|-4--4--4--4---0--0--0--0---2--2--2--2---0--0--0--0--------------|  (x4)
A|-4--4--4--4---0--0--0--0---0--0--0--0---0--0--0--0--------------|
D|-4--4--4--4---0--0--0--0----------------0--0--0--0--------------|


Post-Chrous 1: (1:40)
E|-0--0--0--0---0--0--0--0---0--0--0--0---0--0--0--0--------------|
B|-0--0--0--0---3--3--3--3---0--0--0--0---3--3--3--3--------------|
G|-4--4--4--4---2--2--2--2---4--4--4--4---2--2--2--2--------------|
D|-4--4--4--4---0--0--0--0---4--4--4--4---0--0--0--0--------------|  (x2)
A|-2--2--2--2---0--0--0--0---2--2--2--2---0--0--0--0--------------|
D|--------------0--0--0--0----------------0--0--0--0--------------|


Intro (with static effect): (1:58)
E|------------------------------<12>------9-----------------------|
B|----------------------------------------------------------------|
G|-----------------------------------<7>--------------------------|
D|-------------------------------------------<7>------------------|  (x2)
A|-0--0--0--0--0--0--0--0-----------------------------------------|
D|-------------0--0--0--0--2/4-4----------------0--0--0--0--------|


Verse 2: (2:17)
E|------------------------------<12>------9-----------------------|
B|----------------------------------------------------------------|
G|-----------------------------------<7>--------------------------|
D|-------------------------------------------<7>------------------|  (x4)
A|-0--0--0--0--0--0--0--0-----------------------------------------|
D|-------------0--0--0--0--2/4-4----------------0--0--0--0--------|


Chorus 2: (2:54)
E|-0--0--0--0---0--0--0--0---0--0--0--0---0--0--0--0--------------|
B|-0--0--0--0---3--3--3--3---0--0--0--0---3--3--3--3--------------|
G|-6--6--6--6---2--2--2--2---2--2--2--2---2--2--2--2--------------|
D|-4--4--4--4---0--0--0--0---2--2--2--2---0--0--0--0--------------|  (x4)
A|-4--4--4--4---0--0--0--0---0--0--0--0---0--0--0--0--------------|
D|-4--4--4--4---0--0--0--0----------------0--0--0--0--------------|


Post-Chrous 2: (3:31)
E|-0--0--0--0---0--0--0--0---0--0--0--0---0--0--0--0--------------|
B|-0--0--0--0---3--3--3--3---0--0--0--0---3--3--3--3--------------|
G|-4--4--4--4---2--2--2--2---4--4--4--4---2--2--2--2--------------|
D|-4--4--4--4---0--0--0--0---4--4--4--4---0--0--0--0--------------|  (x2)
A|-2--2--2--2---0--0--0--0---2--2--2--2---0--0--0--0--------------|
D|--------------0--0--0--0----------------0--0--0--0--------------|


Outro: (3:49 - 6:43)
E|----------------------------------------------------------------|
B|----------------------------------------------------------------|
G|----------------------------------------------------------------|
D|----------0---------------0------------2--0------------0-----0--|
A|-------2-----2---------5-----5---------------4^--0-------0------|
D|-0--2-----------2/5-5-----------5--0----------------0------0----|

E|----------------------------------------------------------------|
B|----------------------------------------------------------------|
G|----------------------------------------------------------------|
D|-------0---------------0------------2--0------------0-----0-----|
A|----2-----2---------5-----5---------------4^--0-------0---------|
D|-2-----------2/5-5-----------5--0----------------0------0-------|
Tap to rate this tab
 
# A B C D E F G H I J K L M N O P Q R S T U V W X Y Z