Song name
# A B C D E F G H I J K L M N O P Q R S T U V W X Y Z

Jimmy Eat World - Jen tab

----------------------------------------------------------------------------
			     JEN - Jimmy Eat World
----------------------------------------------------------------------------

Tabbed by: fezaan66
fezaansayed2003@hotmail.com - pls rate it should 100%

e|---------------------------------------------------------------------------|
B|-7-8-8-7-8-8-7-8-8-7-8-8-8--8-8-7-7--5-5-3-3-3h5-5-3-3---------------------|
G|---------------------------------------------------------------------------|
D|---------------------------------------------------------------------------|
A|---------------------------------------------------------------------------|
E|---------------------------------------------------------------------------|

e|-----------------3---3---3---5---5---5-------------------------------------|
B|-2h4-4-4p2p0--1----1---1---3---3---3---------------------------------------|
G|---------------------------------------------------------------------------|
D|---------------------------------------------------------------------------|
A|---------------------------------------------------------------------------|
E|---------------------------------------------------------------------------|

e|-77777777777777557555555555555555---77--55---33--22------------------------|
B|---------------------------------------------------------------------------|
G|---------------------------------------------------------------------------|
D|---------------------------------------------------------------------------|
A|---------------------------------------------------------------------------|
E|---------------------------------------------------------------------------|

e|-2-3-3-2-3-3-2-3-3-3-3-3-7-------------------------------------------------|
B|---------------------------8-7-8-------------------------------------------|
G|---------------------------------------------------------------------------|
D|---------------------------------------------------------------------------|
A|---------------------------------------------------------------------------|
E|---------------------------------------------------------------------------|

| h  hammer-on
| p  pull-off
Tap to rate this tab
# A B C D E F G H I J K L M N O P Q R S T U V W X Y Z